Song name
# A B C D E F G H I J K L M N O P Q R S T U V W X Y Z

Misc Unsigned Bands - Cutt Throat Killers - Play With Me tab

|= DOWNSTROKE
^= UPSTROKE
P.M.= PALM MUTE
H=HAMMER ON
~=VIBRETO

INTRO
F--------------|
B-12~~~-12~~~--|
G--------------|
D--------------|PLAY 4 TIMES
A--------------|
D--------------|


VERSUS

P.M THE X'S
F--------------------------------|
B--------------------------------|PLAY THIS 12 TIMES
G--------------------------------|
D-X-X-3-X-X-X-3-X-X-3-X-X-X-3----|
A-X-X-3-X-X-X-3-X-X-3-X-X-X-3----|
D-X-X-3-X-X-X-3-X-X-3-X-X-X-3----|


COURUS
F------------------------------------------|
B------------------------------------------|
G------------------------------------------|
D-0-0-3-3-3-3-0-0-3-3-3-3-0-0--------------| PLAY THIS 5 TIMES
A-0-0-3-3-3-3-0-0-3-3-3-3-0-0--------------|
D-0-0-3-3-3-3-0-0-3-3-3-3-0-0-3/5----------|
      | ^ | ^     | ^ | ^
      | ^ | ^     | ^ | ^

VERSUS

P.M THE X'S
F--------------------------------|
B--------------------------------|PLAY THIS 12 TIMES
G--------------------------------|
D-X-X-3-X-X-X-3-X-X-3-X-X-X-3----|
A-X-X-3-X-X-X-3-X-X-3-X-X-X-3----|
D-X-X-3-X-X-X-3-X-X-3-X-X-X-3----|


COURUS
F------------------------------------------|
B------------------------------------------|
G------------------------------------------|
D-0-0-3-3-3-3-0-0-3-3-3-3-0-0--------------| PLAY THIS 5 TIMES
A-0-0-3-3-3-3-0-0-3-3-3-3-0-0--------------|
D-0-0-3-3-3-3-0-0-3-3-3-3-0-0-3/5----------|
      | ^ | ^     | ^ | ^


P.M THIS WHOLE RIFF
F-------------------------|
B-------------------------|
G-------------------------|
D-1-1--1-1-1-1-1-1--1-1---|
A-1-1--1-1-1-1-1-1--1-1---| PLAY THIS 6 TIMES
D-1-1--1-1-1-1-1-1--1-1---|

PLAY THIS OVER PREVIOUS RIFF
F-12H13-12H13--12H13-12H13-12H13-12H13-12H13-12H13--12H13-12H13-|
B---------------------------------------------------------------|
G---------------------------------------------------------------|PLAY 6 TIMES
D---------------------------------------------------------------|
A---------------------------------------------------------------|
D---------------------------------------------------------------|

P.M THE X'S
F--------------------------------|
B--------------------------------|PLAY THIS 5 TIMES
G--------------------------------|
D-X-X-3-X-X-X-3-X-X-3-X-X-X-3----|
A-X-X-3-X-X-X-3-X-X-3-X-X-X-3----|
D-X-X-3-X-X-X-3-X-X-3-X-X-X-3----|


OUTRO STRUM UP AND DOWN THE WHOLE RIFF
E----------------------------------------------------------|
B----------------------------------------------------------|
G----------------------------------------------------------|
D-0-0-0-0-0-0-0-0-0-0-3-3-3-3-3-3-3-3-3-3-0-0-0-0-0-3-3-1--|
A-0-0-0-0-0-0-0-0-0-0-3-3-3-3-3-3-3-3-3-3-0-0-0-0-0-3-3-1--|
D-0-0-0-0-0-0-0-0-0-0-3-3-3-3-3-3-3-3-3-3-0-0-0-0-0-3-3-1--|
Tap to rate this tab
# A B C D E F G H I J K L M N O P Q R S T U V W X Y Z