Song name
# A B C D E F G H I J K L M N O P Q R S T U V W X Y Z

Misc Unsigned Bands - Runner-up - The Story Of Staying tab

Help us improve GuitareTab! Take a short survey!
There is barely any Runner-Up on here and they are amazing, this is my first tab im 13 years old.
Enjoy

Tuning: normal


(Guitar 1)
e --7-7-7-7-----------7-7-7-7-----------7-7-7-7-----------7-7-7-7-------------|
B -----------5-5-5-5-----------5-5-5-5-----------5-5-5-5-----------5-5-5-5----|
G ----------------------------------------------------------------------------|
D ----------------------------------------------------------------------------|(x5)
A ----------------------------------------------------------------------------|
E ----------------------------------------------------------------------------|

(Guitar 2)
e ---------------------------|
B ---------------------------|
G ---2----4----6-------------|
D ---2----4----6-----2-------|(x2)
A ---0----2----4-----2-------|
E  -------------------0------|

(Guitar 2)
e    ------------|------------------------------------------|
B  -------------|-------------------------------------------|
G ---2----4----|-----6-6-6-------------2-2-2----4-4-4-------|
D ---2----4----|-----6-6-6----2-2-2----2-2-2----4-4-4-------|(x5)
A ---0----2----|-----4-4-4----2-2-2----0-0-0----2-2-2-------|
E  -------------|--------------0 -0-0-----------------------|

(Guitar 1)
e ----0-0--12-0----11-0----9-0----7-0----5-0--------|
B --------------------------------------------4-5---|
G --------------------------------------------------|
D --------------------------------------------------|(x4)
A --------------------------------------------------|
E --------------------------------------------------|


(Guitar 2)
e ------------------------------------|
B ------------------------------------|
G ----6-6-6----4-4-4----2-2-2---------|
D ----6-6-6----4-4-4----2-2-2---------|
A ----4-4-4----2-2-2----0-0-0---------|
E ------------------------------------|

Runner-Up Website
Related for Runner-up - The Story Of Staying tab