Guitaretab - guitar tabs
Song name
# A B C D E F G H I J K L M N O P Q R S T U V W X Y Z

Misc Unsigned Bands - Crimson Heads - Litmus Paper tab

Crimson Heads- Litmus Paper
Intro
4 bars just drums then guitar comes in with this:
e---------|---------|---------|---------|
B---------|---------|---------|---------|
G--------|--------|-77777777|-99999999|
D-4-444444|-77777777|-77777777|-99999999|
A-44444444|-77777777|-55555555|-77777777|
E-22222222|-55555555|---------|---------|

e---------|---------|---------|---------|
B---------|---------|---------|---------|
G--------|--------|-77777777|-99999999|
D-4-444444|-77777777|-77777777|-99999999|
A-44444444|-77777777|-55555555|-77777777|
E-22222222|-55555555|---------|---------|

Verse One
e---------|---------|
B---------|---------|
G---------|---------|
D-44444444|-77777777|
A-44444444|-77777777|
E-22222222|-55555555|

e---------|---------|
B---------|---------|
G-77777777|-99999999|
D-77777777|-99999999|
A-55555555|-77777777|
E--------|--------|

e---------|---------|
B---------|---------|
G---------|---------|
D-44444444|-77777777|
A-44444444|-77777777|
E-22222222|-55555555|

e---------|---------|
B---------|---------|
G-77777777|-99999999|
D-77777777|-99999999|
A-55555555|-77777777|
E--------|--------|

Interlude
e---------|---------|---------|---------|
B---------|---------|---------|---------|
G-7-9---7-|-77777777|---------|-55555555|
D-7-9-7-7-|-77777777|-44444444|-55555555|
A-5-7-7-5-|-55555555|-44444444|-33333333|
E-----5---|---------|-22222222|---------|

Chorus
e---------|---------|---------|---------|
B---------|---------|---------|---------|
G-77777777|---------|-55555555|---------|
D-77777777|-44444444|-55555555|-77777777|
A-55555555|-44444444|-33333333|-77777777|
E---------|-22222222|---------|-55555555|
	Play chorus four times

Interlude Two
e---------|---------|---------|---------|
B---------|---------|---------|---------|
G-----5---|---------|-77777777|-99999999|
D-4-5-5-4-|-77777777|-77777777|-99999999|
A-4-5-3-4-|-77777777|-55555555|-77777777|
E-2-3---2-|-55555555|---------|---------|

Verse Two
e---------|---------|
B---------|---------|
G---------|---------|
D-44444444|-77777777|
A-44444444|-77777777|
E-22222222|-55555555|

e---------|---------|
B---------|---------|
G-77777777|-99999999|
D-77777777|-99999999|
A-55555555|-77777777|
E--------|--------|

e---------|---------|
B---------|---------|
G---------|---------|
D-44444444|-77777777|
A-44444444|-77777777|
E-22222222|-55555555|

e---------|---------|
B---------|---------|
G-77777777|-99999999|
D-77777777|-99999999|
A-55555555|-77777777|
E--------|--------|

e---------|---------|
B---------|---------|
G-55-77--|-55-77--|
D-55777777|-55777777|
A-33775577|-33775577|
E---55-55|---55-55|
[ Tab from: http://www.guitaretab.com/m/misc-unsigned-bands/70065.html ]
Interlude
e---------|---------|---------|---------|
B---------|---------|---------|---------|
G-7-9---7-|-77777777|---------|-55555555|
D-7-9-7-7-|-77777777|-44444444|-55555555|
A-5-7-7-5-|-55555555|-44444444|-33333333|
E-----5---|---------|-22222222|---------|

Chorus
e---------|---------|---------|---------|
B---------|---------|---------|---------|
G-77777777|---------|-55555555|---------|
D-77777777|-44444444|-55555555|-77777777|
A-55555555|-44444444|-33333333|-77777777|
E---------|-22222222|---------|-55555555|
	Play chorus four times

Interlude Two
e---------|---------|---------|---------|
B---------|---------|---------|---------|
G-----5---|---------|-77777777|-99999999|
D-4-5-5-4-|-77777777|-77777777|-99999999|
A-4-5-3-4-|-77777777|-55555555|-77777777|
E-2-3---2-|-55555555|---------|---------|

Verse Three
e---------|---------|
B---------|---------|
G---------|---------|
D-44444444|-77777777|
A-44444444|-77777777|
E-22222222|-55555555|

e---------|---------|
B---------|---------|
G-77777777|-99999999|
D-77777777|-99999999|
A-55555555|-77777777|
E--------|--------|

e---------|---------|
B---------|---------|
G---------|---------|
D-44444444|-77777777|
A-44444444|-77777777|
E-22222222|-55555555|

e---------|---------|
B---------|---------|
G-77777777|-99999999|
D-77777777|-99999999|
A-55555555|-77777777|
E--------|--------|

e---------|---------|
B---------|---------|
G-55-77--|-55-77--|
D-55777777|-55777777|
A-33775577|-33775577|
E---55-55|---55-55|

Interlude
e---------|---------|---------|---------|
B---------|---------|---------|---------|
G-7-9---7-|-77777777|---------|-55555555|
D-7-9-7-7-|-77777777|-44444444|-55555555|
A-5-7-7-5-|-55555555|-44444444|-33333333|
E-----5---|---------|-22222222|---------|

Verse Four 
e---------|---------|---------|---------|
B---------|---------|---------|---------|
G-77777777|---------|-55555555|---------|
D-77777777|-44444444|-55555555|-77777777|
A-55555555|-44444444|-33333333|-77777777|
E---------|-22222222|---------|-55555555|
	Play verse four twice.

Chorus
e---------|---------|---------|---------|
B---------|---------|---------|---------|
G-77777777|---------|-55555555|---------|
D-77777777|-44444444|-55555555|-77777777|
A-55555555|-44444444|-33333333|-77777777|
E---------|-22222222|---------|-55555555|
	Play chorus four times

Interlude Two
e---------|---------|---------|---------|
B---------|---------|---------|---------|
G-----5---|---------|-77777777|-99999999|
D-4-5-5-4-|-77777777|-77777777|-99999999|
A-4-5-3-4-|-77777777|-55555555|-77777777|
E-2-3---2-|-55555555|---------|---------|

Outro
e---------|---------|---------|---------|
B---------|---------|---------|---------|
G---------|-55555555|---------|-----5---|
D-55555555|-55555555|-44444444|-4-5-5-4-|
A-55555555|-33333333|-44444444|-4-5-3-4-|
E-33333333|---------|-22222222|-2-3---2-|

song can be heard at
www.myspace.com/crimsonheadsrock  maybe cant remember if its on or not
anyway this tab is 100% accurate cos i wrote it!
Related for Crimson Heads - Litmus Paper tab