Guitaretab - guitar tabs
Song name
# A B C D E F G H I J K L M N O P Q R S T U V W X Y Z

Misc Unsigned Bands - Crimson Heads - Punk Rock Martyr tab

Crimson Heads- Punk Rock Martyr
Intro
e-----------|-----------|-----------|-----------|
B-----------|-----------|-----------|-----------|
G-5--7-----|-5--7-----|-5--7-----|-5--7-----|
D-5-7-7-7777|-5-7-7-7777|-5-7-7-7777|-5-7-7-7777|
A-3-7-5-7777|-3-7-5-7777|-3-7-5-7777|-3-7-5-7777|
E---5---5555|---5---5555|---5---5555|---5---5555|

Verse One
e---------|---------|
B---------|---------|
G-55-77--|-55-77--|
D-55777777|-55777777|
A-33775577|-33775577|
E---55-55|---55-55|

e---------|---------|
B---------|---------|
G-55-77--|-55-77--|
D-55777777|-55777777|
A-33775577|-33775577|
E---55-55|---55-55|

Interlude
e---------|
B---------|
G---------|
D-77777777|
A-77777777|
E-55555555|


Verse Two
e---------|---------|
B---------|---------|
G-55-77--|-55-77--|
D-55777777|-55777777|
A-33775577|-33775577|
E---55-55|---55-55|

e---------|---------|
B---------|---------|
G-55-77--|-55-77--|
D-55777777|-55777777|
A-33775577|-33775577|
E---55-55|---55-55|

Interlude
e---------|
B---------|
G---------|
D-77777777|
A-77777777|
E-55555555|

Chorus
e---------|---------|---------|---------|
B---------|---------|---------|---------|
G-55555555|---------|-77777777|---------|
D-55555555|-77777777|-77777777|-22222222|
A-33333333|-77777777|-55555555|-22222222|
E---------|-55555555|---------|---------|

Interlude
e---------|
B---------|
G---------|
D-77777777|
A-77777777|
E-55555555|
[ Tab from: http://www.guitaretab.com/m/misc-unsigned-bands/70066.html ]
Verse Three
e---------|---------|
B---------|---------|
G-55-77--|-55-77--|
D-55777777|-55777777|
A-33775577|-33775577|
E---55-55|---55-55|

e---------|---------|
B---------|---------|
G-55-77--|-55-77--|
D-55777777|-55777777|
A-33775577|-33775577|
E---55-55|---55-55|

Interlude
e---------|
B---------|
G---------|
D-77777777|
A-77777777|
E-55555555|

Chorus
e---------|---------|---------|---------|
B---------|---------|---------|---------|
G-55555555|---------|-77777777|---------|
D-55555555|-77777777|-77777777|-22222222|
A-33333333|-77777777|-55555555|-22222222|
E---------|-55555555|---------|---------|

Verse Four 
(No guitar- Bass, Drum, Vocals only)

Interlude
e---------|
B---------|
G---------|
D-77777777|
A-77777777|
E-55555555|

Chorus
e---------|---------|---------|---------|
B---------|---------|---------|---------|
G-55555555|---------|-77777777|---------|
D-55555555|-77777777|-77777777|-22222222|
A-33333333|-77777777|-55555555|-22222222|
E---------|-55555555|---------|---------|

Interlude
e---------|
B---------|
G---------|
D-77777777|
A-77777777|
E-55555555|

Chorus
e---------|---------|---------|---------|
B---------|---------|---------|---------|
G-55555555|---------|-77777777|---------|
D-55555555|-77777777|-77777777|-22222222|
A-33333333|-77777777|-55555555|-22222222|
E---------|-55555555|---------|---------|

song can be heard at
www.myspace.com/crimsonheadsrock  maybe cant remember if its on or not
anyway this tab is 100% accurate cos i wrote it!
Related for Crimson Heads - Punk Rock Martyr tab