Song name
# A B C D E F G H I J K L M N O P Q R S T U V W X Y Z

Misc Unsigned Bands - Death Of Gemini - Communication Stairway tab

-------------------------------------------------------------------------------
			     Communication Stairway - Death to Gemini
-------------------------------------------------------------------------------
Tabbed by:Ryan Michael
Email:ry_michael@hotmail.com

Tuning: 1/2 step down all strings
   

     verse                                     gtr 1  play through twice
e|-1-/-3-3-3-h5p-3-\-1-/-3-3-5-p5--3-\-1-------------------------------------|
B|-1-/-3-3-3-3---3-\-1-/-3-3-3-3---3-\-1-------------------------------------|
G|-1-/-3-3-4-4p--3-\-1-/-3-3-4-h4p-3-\-1-------------------------------------|
D|-0---0-0-0-0---0---0---0-0-0-0---0---0-------------------------------------|
A|-x---x-x-x-x---x---x---x-x-x-x---x---x-------------------------------------|
E|-x---x-x-x-x---x---x---x-x-x-x---x---x-------------------------------------| 
d   u d u d   d   d   u d u d   d   d


                                             gtr 1  play through twice
e|-1-/-5-8p-7p-5--5-\-3-/-5-8p-7p--5--5-7-/-10-\-7-6-\-3-1-------------------|
B|-1-/-5-5--5--6p-5-\-3-/-5-5--5---6p-5--------------------------------------|
G|-1-/-5----------5-\-3-/-5-----------5--------------------------------------|
D|-0---0----------0---0---0-----------0--------------------------------------|
A|-x---x-x--x--x--x---x---x-x--x---x--x-x---x---x-x---x-x--------------------|
E|-x---x-x--x--x--x---x---x-x--x---x--x-x---x---x-x---x-x--------------------| 
d   u d  d  d  u   d   u d  d   d  u d   d   d d   d d

    intro/chorus                            repeat throughout gtr 11
e|---------------------------------------------------------------------------|one octave lower
B|---------------------------------------------------------------------------|
G|---3-----------8-----------------------------------------------------------|
D|-2---4-/-5---7---9-/-10----------------------------------------------------|
A|-----------7------------5--------------------------------------------------|
E|---------------------------------------------------------------------------|

this is my song. tell me what you think. tempo is irrelavent i have 2 sets of
lyrics one really fast and one slow tempo. theres some more but its realy boring
typing all this.

| /  slide up
| \  slide down
| h  hammer-on
| p  pull-off
| u  up stroke
| d  down stroke
| x  Mute note
===============================================================================
Tap to rate this tab
# A B C D E F G H I J K L M N O P Q R S T U V W X Y Z