Song name
# A B C D E F G H I J K L M N O P Q R S T U V W X Y Z

Misc Unsigned Bands - The Gathering Hearts Endeavor - Ghosts Leave Trails tab

Help us improve GuitareTab! Take a short survey!
Highlighted       Show chord diagrams
Ghosts Leave Trails
By: The Gathering Hearts Endeavor
Tabbed by: Nick 

Capo on 5

Chords
   Am  Em  F  C Cmaj7 G
e|-0---0---0--0---3---3-|
B|-1---0---1--1---3---3-|
G|-2---0---2--0---0---0-|
D|-2---2---3--2---2---0-|
A|-0---2---3--3---2---2-|
E|-0---0---0--0---0---3-|


Intro
Am,Em,F,C,Em x2

*VERSE*
Am         Em               F       C Em
My feet are tethered to this plane.

Am        Em           F                          C Em 
I tried to lift them up again and again and again.

Am       Em           F     C Em
I left my body back at home.

Am Em                F      C Em
For whoever's left to mourn.

*Palm Mute*
*BRIDGE*
Am
But I don't mind,

F
Getting belittled,

         Em                F
Because it all comes back around.

        Am
I'll just walk away,

        F
With the rest of my dignity

      Em                         F(strummed)
And my feet still tethered to the ground.
*Stop Palm-Muting*

*CHORUS*
          C 
But it's okay,

Cmaj7
I'll be fine on my own,

    Am
From here.

F
Walking all these miles,

              C
And there's no way,

 Cmaj7
A helping hand could save me,

  Am
my dear...

 F
Across these broken tiles.

*VERSE*
Am        Em           F     C Em
My mind is racing in my head.

Am        Em            F               C     Em
I've got a lover back at home with tears she's shed.

Am       Em                   F    C  Em
Her tired sobs and screams can fill my ear,

Am      Em                   F     C Em
But they sound so hollow from here.

*Palm Mute*
*BRIDGE*
Am
But my mind,

  F
Is so underrated,

   Em                                F
But this time, it's not coming back around

*Stop Palm-Muting*
Am(Strummed)
Fi-na-lly,

  F
My spectral trail has faded,

       Em
Now I'm untethered,


I'm free,

         F
And I can finally leave this ground!

*CHORUS*
         C
Now I'm okay,

 Cmaj7
My pathway to heaven,

  Am
Is clear.

     F
I can still hear her screams from here,

           C
And in some way,

 Cmaj7
A helping hand has saved me-

 Am
I fear,

      F
She'll never see me again

*SOLO*
(Relative to Capo)
e|-----------|
B|-----------|
G|-----------|   X4
D|-2-------^-|   ^=Bend
A|---3---^-2-|
E|-----2-3---|

*CHORUS*
         C
Now I'm okay,

 Cmaj7
My pathway to heaven,

  Am
Is clear.

     F
I can still hear her screams from here,

           C
And in some way,

 Cmaj7
Oh-Ohhhh...

 Am
I fear,

      F
She'll never see me again, She'll never see me again, No, No,

C         Cmaj7
Nooooooooooo

 Am  F
No No

       C        Cmaj7
No, No, Noooooooo

  Am  
Oho Oho

Strum an F, then G

*OUTRO*

e|-------------3---------------------------------------------------------3---|
B|-----1---------3-----0h1p0-------0-------0h1p0-------1-------0h1p0-------3-|
G|-------0-------------------0-------0-----------0-------0-------------------|
D|---2---------------2-----------2-------3-----------2-------3---------------|
A|-3---------2-----0-----------2-------3-----------3-------3-----------2-----|
E|---------3---------------------------------------------------------3-------|

Repeat x2

After that, finish it off with a strummed C, and you're done.
Related for The Gathering Hearts Endeavor - Ghosts Leave Trails tab