Song name
# A B C D E F G H I J K L M N O P Q R S T U V W X Y Z

Misc Unsigned Bands - Troubled Beneath - Nervous Disposition tab

                               NERVOUS DISPOSITION
                               by Troubled Beneath


Q=240
  4/4


INTRO


  E E E E E E E E   E E E E E E E E   E E E E E E E E   E E E E E E E E
|-----------------|-----------------|-----------------|-----------------|
|-----------------|-----------------|-----------------|-----------------|
|-----------------|-----------------|-----------------|-----------------|
|-4-4-4-4-4-4-4-4-|-4-4-4-4-4-4-4-4-|-4-4-4-4-4-4-4-4-|-4-4-4-4-4-4-4-4-|
|-4-4-4-4-4-4-4-4-|-4-4-4-4-4-4-4-4-|-4-4-4-4-4-4-4-4-|-4-4-4-4-4-4-4-4-|
|-----------------|-----------------|-----------------|-----------------|


CHORUS


  Q  E Q  E E E   Q  E Q  E E E   Q  E Q  E E E   Q  E Q  E E E
|---------------|---------------|---------------|----------------|
|---------------|---------------|---------------|----------------|
|---------------|---------------|---------------|----------------|
|-4--4-4--4-4-4-|---------------|---------------|----------------|
|-2--2-2--2-2-2-|-4--4-4--4-4-4-|-2--2-2--2-2-2-|-2--2-2--2-2-2--|
|---------------|-2--2-2--2-2-2-|-0--0-0--0-0-0-|-0--0-0--0-0-0--|


  Q  E Q  E E E   Q  E Q  E E E   Q  E Q  E E E   Q  E Q  E E E
|---------------|---------------|---------------|----------------|
|---------------|---------------|---------------|----------------|
|---------------|---------------|---------------|----------------|
|-4--4-4--4-4-4-|---------------|---------------|----------------|
|-2--2-2--2-2-2-|-4--4-4--4-4-4-|-2--2-2--2-2-2-|-2--2-2--2-2-2--|
|---------------|-2--2-2--2-2-2-|-0--0-0--0-0-0-|-0--0-0--0-0-0--|


  Q  E Q  E E E   Q  E Q  E E E   Q  E Q  E E E   Q  E Q  E E E
|---------------|---------------|---------------|----------------|
|---------------|---------------|---------------|----------------|
|---------------|---------------|---------------|----------------|
|-4--4-4--4-4-4-|---------------|---------------|----------------|
|-2--2-2--2-2-2-|-4--4-4--4-4-4-|-2--2-2--2-2-2-|-2--2-2--2-2-2--|
|---------------|-2--2-2--2-2-2-|-0--0-0--0-0-0-|-0--0-0--0-0-0--|


  Q  E Q  E E E   Q  E Q  E E E   Q  E Q  E E E   Q  E Q  E E E
|---------------|---------------|---------------|----------------|
|---------------|---------------|---------------|----------------|
|---------------|---------------|---------------|----------------|
|-4--4-4--4-4-4-|---------------|---------------|----------------|
|-2--2-2--2-2-2-|-4--4-4--4-4-4-|-2--2-2--2-2-2-|-2--2-2--2-2-2--|
|---------------|-2--2-2--2-2-2-|-0--0-0--0-0-0-|-0--0-0--0-0-0--|



VERSE ONE

     PM------------------|            PM------------------|
  Q  E E E E E E   E E E E Q  Q    Q  E E E E E E   E E E E Q  Q
|----------------|---------------|----------------|----------------|
|----------------|---------------|----------------|----------------|
|-4--------------|---------------|-4--------------|----------------|
|-4--4-4-4-4-4-4-|-4-4-4-4----4--|-4--4-4-4-4-4-4-|-4-4-4-4----4---|
|-2--2-2-2-2-2-2-|-2-2-2-2-4--2--|-2--2-2-2-2-2-2-|-2-2-2-2-4--2---|
|----------------|---------2-----|----------------|---------2------|


     PM------------------|            PM------------------|
  Q  E E E E E E   E E E E Q  Q    Q  E E E E E E   E E E E Q  Q
|----------------|---------------|----------------|----------------|
|----------------|---------------|----------------|----------------|
|-4--------------|---------------|----------------|----------------|
|-4--4-4-4-4-4-4-|-4-4-4-4----4--|----4-4-4-4-4-4-|-4-4-4-4----4---|
|-2--2-2-2-2-2-2-|-2-2-2-2-6--2--|-2--2-2-2-2-2-2-|-2-2-2-2-4--2---|
|----------------|---------4-----|-0--------------|---------2------|


     PM------------------|            PM------------------|
  Q  E E E E E E   E E E E Q  Q    Q  E E E E E E   E E E E Q  Q
|----------------|---------------|----------------|----------------|
|----------------|---------------|----------------|----------------|
|-4--------------|---------------|-4--------------|----------------|
|-4--4-4-4-4-4-4-|-4-4-4-4----4--|-4--4-4-4-4-4-4-|-4-4-4-4----4---|
|-2--2-2-2-2-2-2-|-2-2-2-2-4--2--|-2--2-2-2-2-2-2-|-2-2-2-2-4--2---|
|----------------|---------2-----|----------------|---------2------|


     PM------------------|            PM------------------|
  Q  E E E E E E   E E E E Q  Q    Q  E E E E E E   E E E E Q  Q
|----------------|---------------|----------------|----------------|
|----------------|---------------|----------------|----------------|
|-4--------------|---------------|----------------|----------------|
|-4--4-4-4-4-4-4-|-4-4-4-4----4--|----4-4-4-4-4-4-|-4-4-4-4----4---|
|-2--2-2-2-2-2-2-|-2-2-2-2-6--2--|-2--2-2-2-2-2-2-|-2-2-2-2-4--2---|
|----------------|---------4-----|-0--------------|---------2------|


BRIDGE

  E E E E E E E E   E E E E E E E E   E E E E E E E E   E E E E E E E E
|-----------------|-----------------|-----------------|------------------|
|-----------------|-----------------|-----------------|------------------|
|-----------------|-----------------|-----------------|------------------|
|-4-4-4-4-4-4-4-4-|-4-4-4-4---------|-----------------|---------2-2-2-2--|
|-2-2-2-2-2-2-2-2-|-2-2-2-2-4-4-4-4-|-2-2-2-2-2-2-2-2-|-2-2-2-2-0-0-0-0--|
|-----------------|---------2-2-2-2-|-0-0-0-0-0-0-0-0-|-0-0-0-0----------|


  E E E E E E E E   E E E E E E E E   E E E E E E E E   E E E E E E E E
|-----------------|-----------------|-----------------|------------------|
|-----------------|-----------------|-----------------|------------------|
|-----------------|-----------------|-----------------|------------------|
|-4-4-4-4-4-4-4-4-|-4-4-4-4---------|-----------------|------------------|
|-2-2-2-2-2-2-2-2-|-2-2-2-2-6-6-6-6-|-4-4-4-4-4-4-4-4-|-2-2-2-2-2-2-2-2--|
|-----------------|---------4-4-4-4-|-2-2-2-2-2-2-2-2-|-0-0-0-0-0-0-0-0--|



CHORUS

  Q  E Q  E E E   Q  E Q  E E E   Q  E Q  E E E   Q  E Q  E E E
|---------------|---------------|---------------|----------------|
|---------------|---------------|---------------|----------------|
|---------------|---------------|---------------|----------------|
|-4--4-4--4-4-4-|---------------|---------------|----------------|
|-2--2-2--2-2-2-|-4--4-4--4-4-4-|-2--2-2--2-2-2-|-2--2-2--2-2-2--|
|---------------|-2--2-2--2-2-2-|-0--0-0--0-0-0-|-0--0-0--0-0-0--|


  Q  E Q  E E E   Q  E Q  E E E   Q  E Q  E E E   Q  E Q  E E E
|---------------|---------------|---------------|----------------|
|---------------|---------------|---------------|----------------|
|---------------|---------------|---------------|----------------|
|-4--4-4--4-4-4-|---------------|---------------|----------------|
|-2--2-2--2-2-2-|-4--4-4--4-4-4-|-2--2-2--2-2-2-|-2--2-2--2-2-2--|
|---------------|-2--2-2--2-2-2-|-0--0-0--0-0-0-|-0--0-0--0-0-0--|


  Q  E Q  E E E   Q  E Q  E E E   Q  E Q  E E E   Q  E Q  E E E
|---------------|---------------|---------------|----------------|
|---------------|---------------|---------------|----------------|
|---------------|---------------|---------------|----------------|
|-4--4-4--4-4-4-|---------------|---------------|----------------|
|-2--2-2--2-2-2-|-4--4-4--4-4-4-|-2--2-2--2-2-2-|-2--2-2--2-2-2--|
|---------------|-2--2-2--2-2-2-|-0--0-0--0-0-0-|-0--0-0--0-0-0--|


  Q  E Q  E E E   Q  E Q  E E E   Q  E Q  E E E   Q  E Q  E E E
|---------------|---------------|---------------|----------------|
|---------------|---------------|---------------|----------------|
|---------------|---------------|---------------|----------------|
|-4--4-4--4-4-4-|---------------|---------------|----------------|
|-2--2-2--2-2-2-|-4--4-4--4-4-4-|-2--2-2--2-2-2-|-2--2-2--2-2-2--|
|---------------|-2--2-2--2-2-2-|-0--0-0--0-0-0-|-0--0-0--0-0-0--|


VERSE TWO

     PM------------------|            PM------------------|
  Q  E E E E E E   E E E E Q  Q    Q  E E E E E E   E E E E Q  Q
|----------------|---------------|----------------|----------------|
|----------------|---------------|----------------|----------------|
|-4--------------|---------------|-4--------------|----------------|
|-4--4-4-4-4-4-4-|-4-4-4-4----4--|-4--4-4-4-4-4-4-|-4-4-4-4----4---|
|-2--2-2-2-2-2-2-|-2-2-2-2-4--2--|-2--2-2-2-2-2-2-|-2-2-2-2-4--2---|
|----------------|---------2-----|----------------|---------2------|


     PM------------------|            PM------------------|
  Q  E E E E E E   E E E E Q  Q    Q  E E E E E E   E E E E Q  Q
|----------------|---------------|----------------|----------------|
|----------------|---------------|----------------|----------------|
|-4--------------|---------------|----------------|----------------|
|-4--4-4-4-4-4-4-|-4-4-4-4----4--|----4-4-4-4-4-4-|-4-4-4-4----4---|
|-2--2-2-2-2-2-2-|-2-2-2-2-6--2--|-2--2-2-2-2-2-2-|-2-2-2-2-4--2---|
|----------------|---------4-----|-0--------------|---------2------|


     PM------------------|            PM------------------|
  Q  E E E E E E   E E E E Q  Q    Q  E E E E E E   E E E E Q  Q
|----------------|---------------|----------------|----------------|
|----------------|---------------|----------------|----------------|
|-4--------------|---------------|-4--------------|----------------|
|-4--4-4-4-4-4-4-|-4-4-4-4----4--|-4--4-4-4-4-4-4-|-4-4-4-4----4---|
|-2--2-2-2-2-2-2-|-2-2-2-2-4--2--|-2--2-2-2-2-2-2-|-2-2-2-2-4--2---|
|----------------|---------2-----|----------------|---------2------|


     PM------------------|            PM------------------|
  Q  E E E E E E   E E E E Q  Q    Q  E E E E E E   E E E E Q  Q
|----------------|---------------|----------------|----------------|
|----------------|---------------|----------------|----------------|
|-4--------------|---------------|----------------|----------------|
|-4--4-4-4-4-4-4-|-4-4-4-4----4--|----4-4-4-4-4-4-|-4-4-4-4----4---|
|-2--2-2-2-2-2-2-|-2-2-2-2-6--2--|-2--2-2-2-2-2-2-|-2-2-2-2-4--2---|
|----------------|---------4-----|-0--------------|---------2------|


BRIDGE

  E E E E E E E E   E E E E E E E E   E E E E E E E E   E E E E E E E E
|-----------------|-----------------|-----------------|------------------|
|-----------------|-----------------|-----------------|------------------|
|-----------------|-----------------|-----------------|------------------|
|-4-4-4-4-4-4-4-4-|-4-4-4-4---------|-----------------|---------2-2-2-2--|
|-2-2-2-2-2-2-2-2-|-2-2-2-2-4-4-4-4-|-2-2-2-2-2-2-2-2-|-2-2-2-2-0-0-0-0--|
|-----------------|---------2-2-2-2-|-0-0-0-0-0-0-0-0-|-0-0-0-0----------|


  E E E E E E E E   E E E E E E E E   E E E E E E E E   E E E E E E E E
|-----------------|-----------------|-----------------|------------------|
|-----------------|-----------------|-----------------|------------------|
|-----------------|-----------------|-----------------|------------------|
|-4-4-4-4-4-4-4-4-|-4-4-4-4---------|-----------------|------------------|
|-2-2-2-2-2-2-2-2-|-2-2-2-2-6-6-6-6-|-4-4-4-4-4-4-4-4-|-2-2-2-2-2-2-2-2--|
|-----------------|---------4-4-4-4-|-2-2-2-2-2-2-2-2-|-0-0-0-0-0-0-0-0--|


  E E E E E E E E   E E E E E E E E   E E E E E E E E   E E E E E E E E
|-----------------|-----------------|-----------------|------------------|
|-----------------|-----------------|-----------------|------------------|
|-----------------|-----------------|-----------------|------------------|
|-4-4-4-4-4-4-4-4-|-4-4-4-4---------|-----------------|---------2-2-2-2--|
|-2-2-2-2-2-2-2-2-|-2-2-2-2-4-4-4-4-|-2-2-2-2-2-2-2-2-|-2-2-2-2-0-0-0-0--|
|-----------------|---------2-2-2-2-|-0-0-0-0-0-0-0-0-|-0-0-0-0----------|


  E E E E E E E E   E E E E E E E E   E E E E E E E E   E E E E E E E E
|-----------------|-----------------|-----------------|------------------|
|-----------------|-----------------|-----------------|------------------|
|-----------------|-----------------|-----------------|------------------|
|-4-4-4-4-4-4-4-4-|-4-4-4-4---------|-----------------|------------------|
|-2-2-2-2-2-2-2-2-|-2-2-2-2-6-6-6-6-|-4-4-4-4-4-4-4-4-|-2-2-2-2-2-2-2-2--|
|-----------------|---------4-4-4-4-|-2-2-2-2-2-2-2-2-|-0-0-0-0-0-0-0-0--|


CHORUS

  Q  E Q  E E E   Q  E Q  E E E   Q  E Q  E E E   Q  E Q  E E E
|---------------|---------------|---------------|----------------|
|---------------|---------------|---------------|----------------|
|---------------|---------------|---------------|----------------|
|-4--4-4--4-4-4-|---------------|---------------|----------------|
|-2--2-2--2-2-2-|-4--4-4--4-4-4-|-2--2-2--2-2-2-|-2--2-2--2-2-2--|
|---------------|-2--2-2--2-2-2-|-0--0-0--0-0-0-|-0--0-0--0-0-0--|


  Q  E Q  E E E   Q  E Q  E E E   Q  E Q  E E E   Q  E Q  E E E
|---------------|---------------|---------------|----------------|
|---------------|---------------|---------------|----------------|
|---------------|---------------|---------------|----------------|
|-4--4-4--4-4-4-|---------------|---------------|----------------|
|-2--2-2--2-2-2-|-4--4-4--4-4-4-|-2--2-2--2-2-2-|-2--2-2--2-2-2--|
|---------------|-2--2-2--2-2-2-|-0--0-0--0-0-0-|-0--0-0--0-0-0--|


  Q  E Q  E E E   Q  E Q  E E E   Q  E Q  E E E   Q  E Q  E E E
|---------------|---------------|---------------|----------------|
|---------------|---------------|---------------|----------------|
|---------------|---------------|---------------|----------------|
|-4--4-4--4-4-4-|---------------|---------------|----------------|
|-2--2-2--2-2-2-|-4--4-4--4-4-4-|-2--2-2--2-2-2-|-2--2-2--2-2-2--|
|---------------|-2--2-2--2-2-2-|-0--0-0--0-0-0-|-0--0-0--0-0-0--|

  Q  E Q  E E E   Q  E Q  E E E   Q  E Q  E E E   Q  E Q  E E E
|---------------|---------------|---------------|----------------|
|---------------|---------------|---------------|----------------|
|---------------|---------------|---------------|----------------|
|-4--4-4--4-4-4-|---------------|---------------|----------------|
|-2--2-2--2-2-2-|-4--4-4--4-4-4-|-2--2-2--2-2-2-|-2--2-2--2-2-2--|
|---------------|-2--2-2--2-2-2-|-0--0-0--0-0-0-|-0--0-0--0-0-0--|


OUTTRO

  Q  E Q  E E E   Q  E Q  E E E   Q  E Q  E E E   Q  E Q  E E E
|---------------|---------------|---------------|----------------|
|---------------|---------------|---------------|----------------|
|---------------|---------------|---------------|----------------|
|-4--4-4--4-4-4-|---------------|---------------|----------------|
|-2--2-2--2-2-2-|-4--4-4--4-4-4-|-2--2-2--2-2-2-|-2--2-2--2-2-2--|
|---------------|-2--2-2--2-2-2-|-0--0-0--0-0-0-|-0--0-0--0-0-0--|


  Q  E Q  E E E   Q  E Q  E E E   Q  E Q  E E E   Q  E Q  E E E
|---------------|---------------|---------------|----------------|
|---------------|---------------|---------------|----------------|
|---------------|---------------|---------------|----------------|
|-4--4-4--4-4-4-|---------------|---------------|----------------|
|-2--2-2--2-2-2-|-4--4-4--4-4-4-|-2--2-2--2-2-2-|-2--2-2--2-2-2--|
|---------------|-2--2-2--2-2-2-|-0--0-0--0-0-0-|-0--0-0--0-0-0--|


  Q  E Q  E E E   Q  E Q  E E E   Q  E Q  E E E   Q  E Q  E E E
|---------------|---------------|---------------|----------------|
|---------------|---------------|---------------|----------------|
|---------------|---------------|---------------|----------------|
|-4--4-4--4-4-4-|---------------|---------------|----------------|
|-2--2-2--2-2-2-|-4--4-4--4-4-4-|-2--2-2--2-2-2-|-2--2-2--2-2-2--|
|---------------|-2--2-2--2-2-2-|-0--0-0--0-0-0-|-0--0-0--0-0-0--|


  Q  E Q  E E E   Q  E Q  E E E   Q  E Q  E E E   Q  E Q  E E E
|---------------|---------------|---------------|----------------|
|---------------|---------------|---------------|----------------|
|---------------|---------------|---------------|----------------|
|-4--4-4--4-4-4-|---------------|---------------|----------------|
|-2--2-2--2-2-2-|-4--4-4--4-4-4-|-2--2-2--2-2-2-|-2--2-2--2-2-2--|
|---------------|-2--2-2--2-2-2-|-0--0-0--0-0-0-|-0--0-0--0-0-0--|


  W
|------|
|------|
|------|
|------|
|-2----|
|-0----|
Tap to rate this tab
# A B C D E F G H I J K L M N O P Q R S T U V W X Y Z