Song name
# A B C D E F G H I J K L M N O P Q R S T U V W X Y Z

Misc Unsigned Bands - Your Twisted Independence - Party Jail No Bail tab

            Your Twisted Ind.
            "party jail no bail"
            we are gonna make our demo pretty soon but for now were
            just submitting tabs so here ya go.(dropped D)

       intro
            e---4-2-0---4-2-0---4-2-0-2-4-2-0-------------(x4)------|
            b-4-------2-------0-------------------------------------|
            g-------------------------------------------------------|
            d-------------------------------------------------------|
            a-------------------------------------------------------|
            e-------------------------------------------------------|

      verse(pm)
            e-----------------------   verse(not pm)e---------------------|
            b-----------------------                b---------------------|
            g-5----7----9----5------                g-5-9-7-5-9-7-5-------|
            d-x(x8)x(x8)x(x8)x(x8)--                d-x-x-x-x-x-x-x-------|
            a-3----x----7----x------                a-3-7-5-x-x-x-x-------|
            e------5---------3------                e-------3-7-5-3-------|

     chorus                           chorus still
           e-------------------------  e-----------------------|
           b-------------------------  b-----------------------|
           g-555-777-9999999-555-777-  g-5-9-7-5-9-7-5---------|
           d-xxx-xxx-xxxxxxx-xxx-xxx-  d-x-x-x-x-x-x-x---------|
           a-333-xxx-7777777-xxx-xxx-  a-3-7-5-x-x-x-x---------|
           e-----555---------333-555-  e-------3-7-5-3---------|
    solo
        now for thesolo. it takes a little while to get theright rythm but
        its not too hard. in fact its Hela cool!
           e---------------------------------12--14^12-14^14^-14-------|
           b-12--12-9------------------12-14---------------------------|
           g----------11-9----9-11/13----------------------------------|
           d---------------11------------------------------------------|
           a-----------------------------------------------------------|
           e-----------------------------------------------------------|

           e-12------12--------------------12-13-14-12-14-15-14-15-17--|
           b---14(14)---14-13-12--12-13-14-----------------------------|
           g-----------------------------------------------------------|
           d-----------------------------------------------------------|
           a-----------------------------------------------------------|
           e-----------------------------------------------------------|

           e-15-17-18-17-18-20^-18-20^-20^-18-15-(15)--15h18-15-13-11--|
           b-----------------------------------------------------------|
           g-----------------------------------------------------------|
           d-----------------------------------------------------------|
           a-----------------------------------------------------------|
           e-----------------------------------------------------------|

           e-11h13-11-15--11-13/15-17-15-17-18-17-18--20^-(18)-20^-20^-|
           b-----------------------------------------------------------|
           g-----------------------------------------------------------|
           d-----------------------------------------------------------|
           a-----------------------------------------------------------|
           e-----------------------------------------------------------|

           e-18---14~-15~~~~~~~~~----|   Heck Yes Mutha Trucka!
           b-------------------------|
           g-------------------------|
           d-------------------------|
           a-------------------------|
           e-------------------------|


          Order:          SWEET! ok be sure to check us out on myspace,
          intro           were gonna put the demos on it
          verse
          chorus
          SOLO!
          intro
          verse
          chorus            PEACE SUCKA!
          verse
          chorus
          chorus
Tap to rate this tab
 
# A B C D E F G H I J K L M N O P Q R S T U V W X Y Z