Song name
# A B C D E F G H I J K L M N O P Q R S T U V W X Y Z

Misc Unsigned Bands - A New Day - So Very Sorry tab

This song is pretty sweet
jack plays it too good but i can tab jeff, he just plays the easy power chords. ;)

e|---------------------------------|
B|---------------------------------|
G|---------------------------------|
D|-2-2-2-2-2-2-2-2-3-3-3-3-5-5-5-5-|X4
A|-2-2-2-2-2-2-2-2-3-3-3-3-5-5-5-5-|
E|-0-0-0-0-0-0-0-0-1-1-1-1-3-3-3-3-|
  PM______________________________

e|------------------------------------------------|
B|------------------------------------------------|
G|------------------------------------------------|
D|-2--2--2--2--2--2--2--2--3--3--3--3--5--5--5--5-|X4
A|-2--2--2--2--2--2--2--2--3--3--3--3--5--5--5--5-|
E|-0--0--0--0--0--0--0--0--1--1--1--1--3--3--3--3-|

E|--------------------------|
B|--------------------------|
G|-10p9h10------------------|
D|---------8h11h12-8h11p0~--|X2
A|--------------------------|
E|--------------------------|
Tap to rate this tab
 
# A B C D E F G H I J K L M N O P Q R S T U V W X Y Z