Song name
# A B C D E F G H I J K L M N O P Q R S T U V W X Y Z

Misc Unsigned Bands - Unknown Victory - Makes Me Wonder tab

This is just a solo from a song I have been writing for months, tr it out see if u like it: 

 

|---------------|
|---------------|
|---------------|
|---2-2-2-333xx-|X2
|-1/1-1-1-222xx-|
|---------------| 

|-4-44-4333-5-5-5444-|
|-3-33-3222-4-4-4333-|
|-3-33-3222-4-4-4333-|
|--------------------| X4
|--------------------|
|--------------------| 

|---------7-8---------7-8----------9-10---------9-10--------|
|--------6---7-------6---7--------8----9-------8----9-------|
|-------7-----------7------------9------------9--------7777-|
|--6666--------5555---------6666---------5555----------6666-|
|------------------------------------------------------5655-|
|-----------------------------------------------------------|  

|--------5-6---------6-7--------|
|---------5-6---------6-7-------|
|----666----------666-----------|
|-555----------555--------5555~-|
|-------------------------------|
|-------------------------------| 


|-7777-------9----11------7777--|
|-0000--------8-8---10-10-0000--|
|-6666---------7------9---6666--|
|-5555--8888x-------------0000--|
|-4444--------------------5555--|
|-0000--------------------------|

_______________________________________(+_-)________________________________
Tap to rate this tab
# A B C D E F G H I J K L M N O P Q R S T U V W X Y Z