Song name
# A B C D E F G H I J K L M N O P Q R S T U V W X Y Z

Misc Unsigned Bands - Broken Paradise - By Now You Know tab

By Now You Know 
By: Broken Paradise

Tabbed by Beef (Broken Paradise Bassist)

x - Palm Mute
/ - Slide


(Intro - Lead Guitar Riff)

E|-----------------------------|
B|-----------------------------|
G|----x-8/10-------------------|
D|--6-x------------------------|   4x
A|--4-x-6/8--666--4-66-4-4-66--|
E|-----------444--2-44-2-2-44--|
                                    
                                    
(Intro - Rythym Guitar Riff)        
                                     
E|-----------------------------|    
B|-----------------------------|
G|--6666-----------------------|
D|--6666---6666---4-66-6-4-66--|   4x
A|--4444---6666---4-66-4-4-66--|
E|---------4444---2-44-2-2-44--|


(Verse = Same as Intro for Rythym Guitar, but Palm Muted)  4x



(Chorus)

E|-----------------------------|
B|-----------------------------|
G|--8888-----------------------|
D|--8888---8888---6-88-6-6-88--|    4x
A|--6666---8888---6-88-6-6-88--|
E|---------6666---4-66-4-4-66--|


(Post Chorus = Both Intro Guitars 2x)

(Breakdown = Intro Lead Guitar after 6 bars)
Tap to rate this tab
# A B C D E F G H I J K L M N O P Q R S T U V W X Y Z