Song name
# A B C D E F G H I J K L M N O P Q R S T U V W X Y Z

Misc Unsigned Bands - Less Then Four - Your Mom tab

Less Than Four (L.T.F.) is a band in my hometown in Wisconsin and they do
punk/alternative rock. This song is sort of a weird song, but it's kinda
funny and it's the only song by this band I could get a demo recording of.
If you wanna check em out, they’re at http://www.betarecords.com/less.than.four/
You can get a recording of this song there and you can listen to some others.

4/4 meter
Tempi:
Q=approx 134-142

The rhythm is swung a bit, so be sure to swing the eighth notes.

Intro and Verses.
       .   .   .   .       .   .   .         .  .  .         .  .  .  .
    e  q   q   q   e    e  q   q   q   e   e q  q  q  e   e  q  q  q  e    
E||-12-12--12—-12—-9--|-9—-9---9---9---5-|-5-5—-5—-5—-7-|-7—-7—-7—-7—-12-||
B||-12-12--12—-12—-9--|-9—-9---9---9---5-|-5-5—-5—-5—-7-|-7--7--7--7—-12-||
G||-13-13--13—-13—-10-|-10-10—-10—-10—-6-|-6-6—-6—-6—-8-|-8--8--8--8—-13-||
D||-14-14--14—-14—-11-|-11-11—-11—-11—-6-|-7-7—-7—-7—-9-|-9--9--9--9—-14-||
A||-------------------|------------------|--------------|----------------||
E||-------------------|------------------|--------------|----------------||


Pre-Bass Solo
         .  .       .  .  .  .    
   q  q  q  q    e  q  q  q  e         h    (h)
E||-5--5--4--3--|-7—-7—-7—-7—-7-||   ||-12----------||
B||-5--5--4--3--|-7—-7—-7—-7—-7-||   ||-12----------||
G||-6--6--5--4--|-8--8--8--8—-8-||4x ||-13----------||
D||-7--7--6--5--|-9--9--9--9—-9-||   ||-14----------||
A||-------------|---------------||   ||-------------||
E||-------------|---------------||   ||-------------||
So mom please don’t get rid of me…

Bass Solo for 12 measures, and then…

I love...
      .         .   .      .      .  .
   e  q   e  e  q   e    e q  e e q  e
E||-12-12—-12-12-12--12-|-7-7--7-5-5--5-||
B||-12-12--12-12-12--12-|-7-7--7-5-5--5-||
G||-13-13--13-13-13--13-|-8-8--8-6-6--6-||6x
D||-14-14--14-14-14--14-|-9-9--9-7-7--7-||
A||---------------------|---------------||
E||---------------------|---------------||
your mom, and your mom and etc.

       .   .   .   .       .   .   .         .  .  .         .  .  .  .
    e  q   q   q   e    e  q   q   q   e   e q  q  q  e   e  q  q  q  e    
E||-12-12--12—-12—-9--|-9—-9---9---9---5-|-5-5—-5—-5—-7-|-7—-7—-7—-7—-12-||
B||-12-12--12—-12—-9--|-9—-9---9---9---5-|-5-5—-5—-5—-7-|-7--7--7--7—-12-||
G||-13-13--13—-13—-10-|-10-10—-10—-10—-6-|-6-6—-6—-6—-8-|-8--8--8--8—-13-||
D||-14-14--14—-14—-11-|-11-11—-11—-11—-6-|-7-7—-7—-7—-9-|-9--9--9--9—-14-||
A||-------------------|------------------|--------------|----------------||
E||-------------------|------------------|--------------|----------------||

End Chord
    w
E||-12-----------||
B||-12-----------||
G||-13-----------||
D||-14-----------||
A||--------------||
E||--------------||

Fine.
Tap to rate this tab
 
# A B C D E F G H I J K L M N O P Q R S T U V W X Y Z