Song name
# A B C D E F G H I J K L M N O P Q R S T U V W X Y Z

Misc Unsigned Bands - Caelum Ferrum - My Smile As Fake As Her Love tab

Intro/Verse
(Acoustic)

e|----1----      e|----3----      e|----0----|
B|--3---3--      B|--3---3--      B|--3---3--|
G|---2---2-  x4  G|---2---2-  x4  G|---2---2-|
D|-0-------      D|-0-------      D|-0-------|
A|---------      A|---------      A|---------|
E|---------      E|---------      E|---------|


Chorus

e|-111111-333333-000000-1111-|
B|-333333-333333-222222-3333-|
G|-222222-000000-000000-2222-|   x4
D|-000000-000000-000000-0000-|
A|---------------------------|
E|---------------------------|

e|-1h3p1p0h1h3p1p0h1h3p1p0-----|
B|------------------------1vvv-|

Interlude/bridge

e|-2-2-2-2-2-2-2-2-3-3-3-3-3-3-3-3-0-0-0-0-0-0-0-0-2-|
B|-3-3-3-3-3-3-3-3-3-3-3-3-3-3-3-3-3-3-3-3-3-3-3-3-3-|
G|-2-2-2-2-2-2-2-2-2-2-2-2-2-2-2-2-2-2-2-2-2-2-2-2-2-|
D|-0-0-0-0-0-0-0-0-0-0-0-0-0-0-0-0-0-0-0-0-0-0-0-0-0-|
A|---------------------------------------------------|
E|---------------------------------------------------|

outro

e|----1-----1-|
B|--3---3---3-|
G|---2---2--2-|
D|-0--------0-|
A|------------|
E|------------|
Tap to rate this tab
 
# A B C D E F G H I J K L M N O P Q R S T U V W X Y Z