Song name
# A B C D E F G H I J K L M N O P Q R S T U V W X Y Z

Misc Unsigned Bands - Caelum Ferrum - Introduction tab

Help us improve GuitareTab! Take a short survey!
e|----0------0------5------0---|
B|---7-7----7-7----7-7----3-3--|
G|--7---7--7---7--7---7--0---0-|
D|-0------0------5------0------|
A|-----------------------------|
E|-----------------------------|

Solo

e|-----------------------------------------------------------------------|
B|-5-7-9vv-9-10p9h10p9h10p9-7--9-10p9h10p9h10p9-12--13p12h13p12h13p12-15-|
G|-0-0-0vv-------------------------------------------------------------0-|
D|---------------------------------------------------------------------0-|
A|-----------------------------------------------------------------------|
E|-----------------------------------------------------------------------|

e|----------------------------------------------14h16p14-14h16p14-14vv-|
B|-15--16p15h16p15h16p15-18vvv-19-18-16h18p14vv-14-------14-------14vv-|
G|---------------------------------------------------------------------|
D|---------------------------------------------------------------------|
A|---------------------------------------------------------------------|
E|---------------------------------------------------------------------|
Related for Caelum Ferrum - Introduction tab