Song name
# A B C D E F G H I J K L M N O P Q R S T U V W X Y Z

Misc Unsigned Bands - Caelum Ferrum - Coldfire tab

Intro

e|-12-10-9vv-9h10p9-------------------------------------------------|
B|-----------------10vv-12-11-9vv-9h11p9----------------------------|
G|---------------------------------------11vv-11-12-11h12p11---11vv-|
D|----------------------------------------------------------12-12vv-|
A|------------------------------------------------------------------|
E|------------------------------------------------------------------|


Verse
Guitar 1:

e|------------------------|
B|------------------------|
G|------------------------|   x10
D|------------------------|
A|--------------5-4-2-0-0-|
E|-0-2-4-5-4-2-0----------|


Guitar 2

e|--------------------------------------------------------------------|
B|--------------------------------------------------------------------|
G|--------------------------------------------------------------------|
D|--------------------------------------------------------------------|
A|------------------4-4-4-4-4-4-4-4-0-2-2-2-2-2-2-2-2-0---------------|
E|-4-4-4-4-4-4-4-4-0------------------------------------2-2-2-2-4-2-0-|

Chorus
Guitar 1&2

e|-00000000-33333333-22222222-00000000-|
B|-00000000-33333333-33333333-00000000-|
G|-00000000-00000000-22222222-22222222-|
D|-22222222-00000000-00000000-22222222-|
A|-22222222-22222222-00000000-00000000-|
E|-00000000-33333333-xxxxxxxx----------|

Solo
Guitar1&2

e|-4p2p0h2h4p2p0h2h4p2p0h2h4p2p0-7p5p0h5h7p5p0h5h7p5p0h5h7p5p0-|
B|-------------------------------------------------------------|
G|-------------------------------------------------------------|
D|-------------------------------------------------------------|
A|-------------------------------------------------------------|
E|-------------------------------------------------------------|

e|-9p7p0h7h9p7p0h7h9p7p0h7h9p7p0-7p5p0h5h7p5p0h5h7p5p0h5h7p5p0-|
B|-----------------------------------------------------------0-|
G|-------------------------------------------------------------|
D|-------------------------------------------------------------|
A|-------------------------------------------------------------|
E|-------------------------------------------------------------|
Tap to rate this tab
# A B C D E F G H I J K L M N O P Q R S T U V W X Y Z