Song name
# A B C D E F G H I J K L M N O P Q R S T U V W X Y Z

Misc Unsigned Bands - These Silhouettes - Surrender Your Heart tab

Help us improve GuitareTab! Take a short survey!
              (www.myspace.com/thesesilhouettes)
(opening riff)

e------------------------------------12-----11-------|
b---------9----12------9----12------------------9----|
g------9-------------9------------9------------------|    X9
d---11------11----11-----11----11--------11----------|
a----------------------------------------------------|
e----------------------------------------------------|
on the tenth time the ending goes...

e------------------------12----12--------------------|
b---------9----12------9-----------------------------|
g------9-------------9-------------------------------|
d---11------11----11--------11-----------------------|
a----------------------------------------------------|
e----------------------------------------------------|

(power chord time.)
   X14                       X2   X12
   (i've talked to the angels         they can't...
e----------------------------------------------------|
b----------------------------------------------------|
g----------------------------------------------------|
d--7-------------------------9----11-----------------|
a--7-------------------------9----11-----------------|
e--5-------------------------7----9------------------|
       X2                          X2
  (that dress ... ends in tradgedy)
e-----------------------------------------------------|  repeat till next
b-----------------------------------------------------|  part
g-----------------------------------------------------|  (listen to the song
d--11-11-11--11------------------7-7-7--7-------------|  to figure out the
a--11-11-11--11------------------7-7-7--7-------------|  rhythm.)
e--9--9--9---9-------------------5-5-5--5-------------|
    repeat till scream   (every 3X this pattern's done, do this one  )
  (we're going down!...)           (scream)                         |
e------------------- ----------------------- ----------            ---|
b------------------- ----------------------- ----------    <----------|
g------------------- ----------------------- -------------------------|
d--11-11------------ ----11-11--11-11--11--- -7-7--9-9----------------|
a--11-11------------ ----11-11--11-11--11--- -7-7--9-9----------------|
e--9--9------------- ----9--9---9--9---9---- -5-5--7-7----------------|

chorus...

                 (repeat till end of chorus)
  (captain, captain)
e----------------------------------------------------|
b----------------------------------------------------|
g----------------------------------------------------|
d--7-7--7-7----7-7--9-9----11-11--11-11--------------|
a--7-7--7-7----7-7--9-9----11-11--11-11--------------|
e--5-5--5-5----5-5--7-7----9--9---9--9---------------|
     X2             X2
  (you knew...)
e----------------- --------------------------|
b----------------- --------------------------|
g----------------- --------------------------|     X2
d--11-11--11-11--- -7-7--7-7-----------------|
a--11-11--11-11--- -7-7--7-7-----------------|
e--9--9---9--9---- -5-5--5-5-----------------|
  dunno how many times you play 1st power chord; complicated pattern.
  (screaming)                                    listen to the song
e-------------------------------------------|     to figure it out.
b-------------------------------------------|    play other 2 chords 8X
g-------------------------------------------|    each.
d--11----7----9-----------------------------|
a--11----7----9-----------------------------|
e--9-----5----7-----------------------------|
 keep playing 1st chord till "when i die", then go into second part
(clapping part)
e-------------- ----------------------------|
b-------------- ----------------------------|
g-------------- ----------------------------|
d--7----------- ----7----11-----------------|
a--7----------- ----7----11-----------------|
e--5----------- ----5----9------------------|

              that's pretty much it. sweet song. dunno why noone tabbed it before. think 
of it's right. LISTEN TO THE SONG TO FIND THE RHYTHM for the power chords and timing. 
e-mail me (alik ioffe) at cheez_bal@hotmail.com. feedback or compliments about my
sexiness are greatly appreciated.
Related for These Silhouettes - Surrender Your Heart tab