Song name
# A B C D E F G H I J K L M N O P Q R S T U V W X Y Z

Misc Unsigned Bands - Death Of Gemini - Her Blue Eyes tab

-------------------------------------------------------------------------------
			     SONG NAME - Band Name
-------------------------------------------------------------------------------
Tabbed by:ryan michael
Email:ry_michael@hotmail.com

Tuning:D G C F A D

d|---3-3-3-3---3---3---3--3--|--3-3----3-3---3---3---3---3-|
A|---4-4-4-4---4---4---4--4--|--3-3----3-3-h-6-p-3-h-6-p-3-|
F|---5-5-5-5-p-3---3---3--3--|--4-4----4-4---4---4---4---4-|
C|---5-5-5-5---5---5---5--5--|--5-5-ph-5-5-p-3---3---3---3-|
G|---3-3-3-3-h-6-p-3-h-6--6--|--5-5----5-5---5---5---5---5-|
D|---0-0-0-0---0---0---0--0--|--3-3----3-3---3---3---3---6-|

d|---0-0-0-0---0---0---0--0--|--3-----------3---0---0-------|
A|---0-0-0-0---0---0---0--0--|--0-0---------0---1---0-------|
F|---2-2-2-2---2---1---1--1--|----------3-----------0-----3-|
C|---0-0-0-0---0---0---2--2--|--0-0---------0---2---2-------|
G|---3-3-3-3---2---2---2--2--|--2-2---2-----2---3---2---2---|
D|---1-1-1-0---0---0---0--0--|--3-3---3-----3-------0---3---|




| /  slide up
| \  slide down
| h  hammer-on
| p  pull-off
| ~  vibrato
| +  harmonic
| x  Mute note
===============================================================================
Tap to rate this tab
# A B C D E F G H I J K L M N O P Q R S T U V W X Y Z