Song name
# A B C D E F G H I J K L M N O P Q R S T U V W X Y Z

Misc Unsigned Bands - Fresh Off The Boat - Fobulous tab

"Foboulus" by Fresh Off the Boat
Tabbed by Kunal P. (freedoggy77@gmail.com)
DROP D TUNING

Intro

e---------------------------------------------------------------------|
B---------------------------------------------------------------------|
G---------------------------------------------------------------------|
D-0-0-0-0-0-0-0-0--5-5-5-5-5-5-5-5--2-2-2-2-2-2-2-2--5-5-5-5-5-5-5-5--|
A-0-0-0-0-0-0-0-0--5-5-5-5-5-5-5-5--2-2-2-2-2-2-2-2--5-5-5-5-5-5-5-5--|
D-0-0-0-0-0-0-0-0--5-5-5-5-5-5-5-5--2-2-2-2-2-2-2-2--5-5-5-5-5-5-5-5--| x2

Verse 1

e------------------------------------------------|
B------------------------------------------------|
G------------------------------------------------|
D-0-0-0-0-0--5-5-5-5-5--2-2-2-2-2--5-5-5-5-5-----|
A-0-0-0-0-0--5-5-5-5-5--2-2-2-2-2--5-5-5-5-5-----|
D-0-0-0-0-0--5-5-5-5-5--2-2-2-2-2--5-5-5-5-5 x 2-|

e--------------------------------------------|
B--------------------------------------------|
G--------------------------------------------|
D-7-7-7-7-7--9-9-9-9-9--7-7-7-7-7--5-5-5-5-5-|
A-7-7-7-7-7--9-9-9-9-9--7-7-7-7-7--5-5-5-5-5-|
D-7-7-7-7-7--9-9-9-9-9--7-7-7-7-7--5-5-5-5-5-|

e------------------------------------|
B------------------------------------|
G------------------------------------|
D-7-7-7-7-7--9-9-9-9-9--7-7-7-7-7--5-|
A-7-7-7-7-7--9-9-9-9-9--7-7-7-7-7--5-|
D-7-7-7-7-7--9-9-9-9-9--7-7-7-7-7--5-|

Bridge

Guitar 1-

e--------------------------------------------------------------------------------------------|
B--------------------------------------------------------------------------------------------|
G--------------------------------------------------------------------------------------------|
D--------------------------------------------------------------------------------------------|
A--------------------------------------------------------------------------------------------|
D-0-0-0-0-0-5-5-5-5-5-2-2-2-2-2-5-5-5-5-5-0-0-0-0-0-5-5-5-5-5-7-7-7-7-7-9-9-9-9-9-5-5-5-5-5--|

Solo

e-14-12-15-12-14-12-14-12-15-12-14-12-14-12-15-12-14-12-14-| (hold and let ring)
B----------------------------------------------------------|
G----------------------------------------------------------|
D----------------------------------------------------------|
A----------------------------------------------------------|
D----------------------------------------------------------|

Guitar 2 (meanwhile)-

e------------------------------------------|
B------------------------------------------|
G------------------------------------------|
D-0-0-0-0-0-5-5-5-5-5-9-9-9-9-9-5-5-5-5-5--|
A-0-0-0-0-0-5-5-5-5-5-9-9-9-9-9-5-5-5-5-5--|
D-0-0-0-0-0-5-5-5-5-5-9-9-9-9-9-5-5-5-5-5--|
(continue with the last note (keep playing) until guitar 1 finishes)

Verse 2

e------------------------------------------------|
B------------------------------------------------|
G------------------------------------------------|
D-0-0-0-0-0--5-5-5-5-5--2-2-2-2-2--5-5-5-5-5-----|
A-0-0-0-0-0--5-5-5-5-5--2-2-2-2-2--5-5-5-5-5-----|
D-0-0-0-0-0--5-5-5-5-5--2-2-2-2-2--5-5-5-5-5 x 2-|

e--------------------------------------------|
B--------------------------------------------|
G--------------------------------------------|
D-7-7-7-7-7--9-9-9-9-9--7-7-7-7-7--5-5-5-5-5-|
A-7-7-7-7-7--9-9-9-9-9--7-7-7-7-7--5-5-5-5-5-|
D-7-7-7-7-7--9-9-9-9-9--7-7-7-7-7--5-5-5-5-5-|

e------------------------------------|
B------------------------------------|
G------------------------------------|
D-7-7-7-7-7--9-9-9-9-9--7-7-7-7-7--5-|
A-7-7-7-7-7--9-9-9-9-9--7-7-7-7-7--5-|
D-7-7-7-7-7--9-9-9-9-9--7-7-7-7-7--5-|

Outro

e--------------------------------------------------------------------|
B--------------------------------------------------------------------|
G--------------------------------------------------------------------|
D-0-0-0-0-0-0-0-0--5-5-5-5-5-5-5-5--2-2-2-2-2-2-2-2--5-5-5-5-5-5-5-5-|
A-0-0-0-0-0-0-0-0--5-5-5-5-5-5-5-5--2-2-2-2-2-2-2-2--5-5-5-5-5-5-5-5-|
D-0-0-0-0-0-0-0-0--5-5-5-5-5-5-5-5--2-2-2-2-2-2-2-2--5-5-5-5-5-5-5-5-|
Tap to rate this tab
 
# A B C D E F G H I J K L M N O P Q R S T U V W X Y Z