Song name
# A B C D E F G H I J K L M N O P Q R S T U V W X Y Z

Misc Unsigned Bands - Pense Crois - In The Flames tab

Hi!

This is a song from the band "Pense Crois".


/=Slide


Intro:
            1/2x6                  1/2x6
|------------------------------------------------------------|
|------------------------------------------------------------|
|------------------------------------------------------------|
|------------------------------------------------------------|
|------14---10^---10----------14---12^---12------------------|
|-12~~~------------------12~~~-------------------------------|

            1/2x6
|------------------------------------------------------------|
|------------------------------------------------------------|
|-------------------------------9-8-7------------------------|
|-------------------------------------9-8-7----7-8-7---------|
|------14---10^---10------------------------10-------7-------|
|-12~~~---------------------0-0------------------------------|

Chorus                        PM|---------------|  
|------------------------|     |------------------------|
|------------------------|     |------------------------|
|------------------------|     |------------------------|
|--2--2------------------|     |------------------------|
|--2--2--7--5-----4/5----|     |-----7---5---4/5--------|
|--0--0--5--3--0--2/3----|x6   |-0-0-5-x-3-x-2/3--------|x4

Vers
   PM|--------|    PM|--------|       PM|--------|   PM|--|
|----------------------------------|---------------------------------------|
|----------------------------------|---------------------------------------|
|----------------------------------|---------------9--8-88--9-8-7----------|
|-2---2-222-22--9--8--88888888-8/9-|-2---2-222-22--9--8-88--------9-8-7----|
|-2---2-222-22--9--8--88888888-8/9-|-2---2-222-22--7--6-66--------------10-|
|-0---0-000-00--7--6--66666666-6/7-|-0---0-002-00--------------------------|

   PM|--------|    PM|--------|       PM|--------|   PM|--|
|----------------------------------|---------------------------------------|
|----------------------------------|---------------------------------------|
|----------------------------------|-2---2-222-22--9--8-88--9-8-7----------|
|-2---2-222-22--9--8--88888888-8/9-|-2---2-222-22--9--8-88--------9-8-7----|
|-2---2-222-22--9--8--88888888-8/9-|-0---0-000-00--7--6-66--------------10-|
|-0---0-000-00--7--6--66666666-6/7-|---------------------------------------|

                              PM|---------------|  
|------------------------|     |------------------------|
|------------------------|     |------------------------|
|------------------------|     |------------------------|
|--2--2------------------|     |------------------------|
|--2--2--7--5-----4/5----|     |-----7---5---4/5--------|
|--0--0--5--3--0--2/3----|x8   |-0-0-5-x-3-x-2/3--------|x4

   PM|--------|    PM|--------|       PM|--------|   PM|--|
|----------------------------------|---------------------------------------|
|----------------------------------|---------------------------------------|
|----------------------------------|---------------9--8-88--9-8-7----------|
|-2---2-222-22--9--8--88888888-8/9-|-2---2-222-22--9--8-88--------9-8-7----|
|-2---2-222-22--9--8--88888888-8/9-|-2---2-222-22--7--6-66--------------10-|
|-0---0-000-00--7--6--66666666-6/7-|-0---0-002-00--------------------------|

   PM|--------|    PM|--------|       PM|--------|   PM|--|
|----------------------------------|---------------------------------------|
|----------------------------------|---------------------------------------|
|----------------------------------|-2---2-222-22--9--8-88--9-8-7----------|
|-2---2-222-22--9--8--88888888-8/9-|-2---2-222-22--9--8-88--------9-8-7----|
|-2---2-222-22--9--8--88888888-8/9-|-0---0-000-00--7--6-66--------------10-|
|-0---0-000-00--7--6--66666666-6/7-|---------------------------------------|

                              PM|---------------|  
|------------------------|     |------------------------|
|------------------------|     |------------------------|
|------------------------|     |------------------------|
|--2--2------------------|     |------------------2-----|
|--2--2--7--5-----4/5----|     |-----7---5---4/5--2-----|
|--0--0--5--3--0--2/3----|x8   |-0-0-5-x-3-x-2/3--0-----|x4


PM|--| |--| |--| |--| |--|    PM|--| |--| |--| |-| |-|
|---------------------------------------------------------------|
|---------------------------------------------------------------|
|---------------------------------------------------------------|
|-----9----9----9----9----9/12------9----9----9---9---14-12-----|
|-----7----7----7----7----7/10------7----7----7---7---12-10-----|
|--00---00---00---00---00--------00---00---00---0---0-----------|

PM|--| |--| |--| |--| |--|    PM|--|
|---------------------------------------------------------------|
|---------------------------------------------------------------|
|-----------------------------------9-8-7-----------------------|
|-----9----9----9----9----9/12------------9-8-7----7-8-7--------|
|-----7----7----7----7----7/10------------------10-------7------|
|--00---00---00---00---00--------00-----------------------------|x3


   PM|--------|    PM|--------|       PM|--------|   PM|--|
|----------------------------------|---------------------------------------|
|----------------------------------|---------------------------------------|
|----------------------------------|---------------9--8-88--9-8-7----------|
|-2---2-222-22--9--8--88888888-8/9-|-2---2-222-22--9--8-88--------9-8-7----|
|-2---2-222-22--9--8--88888888-8/9-|-2---2-222-22--7--6-66--------------10-|
|-0---0-000-00--7--6--66666666-6/7-|-0---0-002-00--------------------------|

   PM|--------|    PM|--------|       PM|--------|   PM|--|
|----------------------------------|---------------------------------------|
|----------------------------------|---------------------------------------|
|----------------------------------|-2---2-222-22--9--8-88--9-8-7----------|
|-2---2-222-22--9--8--88888888-8/9-|-2---2-222-22--9--8-88--------9-8-7----|
|-2---2-222-22--9--8--88888888-8/9-|-0---0-000-00--7--6-66--------------10-|
|-0---0-000-00--7--6--66666666-6/7-|---------------------------------------|

                              PM|---------------|  
|------------------------|     |------------------------|
|------------------------|     |------------------------|
|------------------------|     |------------------------|
|--2--2------------------|     |------------------------|
|--2--2--7--5-----4/5----|     |-----7---5---4/5--------|
|--0--0--5--3--0--2/3----|x8   |-0-0-5-x-3-x-2/3--------|x4

Outro
|---------------------------------|
|---------------------------------|
|---------------------------------|
|--222---222---222---222---2------|
|--222---222---222---222---2------|
|--000---000---000---000---0------|
Tap to rate this tab
 
# A B C D E F G H I J K L M N O P Q R S T U V W X Y Z