Guitaretab - guitar tabs
Song name
# A B C D E F G H I J K L M N O P Q R S T U V W X Y Z

Misc Unsigned Bands - Sharp Side Up - Seemed Like A Good Idea At The Time tab

-------------------------------------------------------------------------------
Sharp Side Up  Seemed Like A Good Idea At The Time
-------------------------------------------------------------------------------
Artist: Sharp Side Up
Song: Seemed Like A Good Idea At The Time
Album: Deep In The City
Year: 2006
Tabbed By: Sean Walkington
e-mail: seanwalkington2003@hotmail.com

www.freewebs.com/sharpsideup

Tuning:

Intro

e|---------------------------------------------------------------------------|
B|---------------------------------------------------------------------------|
G|-----7-7-5------7-7-5------7-7-5------7-7-5--------------------------------|
D|-7-7-7-7-5--7-7-7-7-5--7-7-7-7-5--7-7-7-7-5--------------------------------|
A|-7-7-5-5-3--7-7-5-5-3--7-7-5-5-3--7-7-5-5-3--------------------------------|
E|-5-5--------5-5--------5-5--------5-5--------------------------------------|

Verse
[ Tab from: http://www.guitaretab.com/m/misc-unsigned-bands/70755.html ]
e|---------------------------------------------------------------------------|
B|---------------------------------------------------------------------------|
G|-----7-7-5------7-7-5------7-7-5------7-7-5--------------------------------|
D|-7-7-7-7-5--7-7-7-7-5--7-7-7-7-5--7-7-7-7-5--------------------------------|
A|-7-7-5-5-3--7-7-5-5-3--7-7-5-5-3--7-7-5-5-3--------------------------------|
E|-5-5--------5-5--------5-5--------5-5--------------------------------------|

Chorus

e|---------------------------------------------------------------------------|
B|---------------------------------------------------------------------------|
G|-2---------4----4----------------------------------------------------------|
D|-2----2----4----4----------------------------------------------------------|
A|-0----2----2----2----------------------------------------------------------|
E|------0--------------------------------------------------------------------|

Structure 

Intro x1
Verse x4
Chorus x4
Intro x1
Verse x4
Chorus x4
Intro x1
Related for Sharp Side Up - Seemed Like A Good Idea At The Time tab