Song name
# A B C D E F G H I J K L M N O P Q R S T U V W X Y Z

Misc Unsigned Bands - Fresh Off The Boat - Insanity tab

"Insanity" by Fresh Off the Boat
Tabbed by Kunal P. (freedoggy77@gmail.com)

DROP D TUNING

Intro-

e--------------------------------
B--------------------------------
G--------------------------------
D-0-0-0-0-2-2-2-2-5-5-5-5-7-7-7-7
A-0-0-0-0-2-2-2-2-5-5-5-5-7-7-7-7
D-0-0-0-0-2-2-2-2-5-5-5-5-7-7-7-7 x 3 (let ring)

Verse-

e------------------
B------------------
G------------------
D-0-0-3-3-3-5-5-5-7
A-0-0-3-3-3-5-5-5-7
D-0-0-3-3-3-5-5-5-7 x 2

e--------------------------------
B--------------------------------
G--------------------------------
D-7-7-7-7-5-5-5-5-2-2-2-2-3-3-3-3
A-7-7-7-7-5-5-5-5-2-2-2-2-3-3-3-3
D-7-7-7-7-5-5-5-5-2-2-2-2-3-3-3-3 x 2 (only play 3-3-3 once)

Bridge/Solo-

e--------------------------------
B--------------------------------
G--------------------------------
D--------------------------------
A--------------------------------
D-0-0-0-0-3-3-3-3-5-5-5-5-7-7-7-7 x 2

e-10-10-10-10-8-8-8-5-5-5-5-3-3-1--
B---------------------------------3
G----------------------------------
D----------------------------------
A----------------------------------
D----------------------------------

Verse-

e------------------
B------------------
G------------------
D-0-0-3-3-3-5-5-5-7
A-0-0-3-3-3-5-5-5-7
D-0-0-3-3-3-5-5-5-7 x 2

e--------------------------------
B--------------------------------
G--------------------------------
D-7-7-7-7-5-5-5-5-2-2-2-2-3-3-3-3
A-7-7-7-7-5-5-5-5-2-2-2-2-3-3-3-3
D-7-7-7-7-5-5-5-5-2-2-2-2-3-3-3-3 x 2 (only play 3-3-3 once)

Outro-

e--------------------------------
B--------------------------------
G--------------------------------
D-0-0-0-0-2-2-2-2-5-5-5-5-7-7-7-7
A-0-0-0-0-2-2-2-2-5-5-5-5-7-7-7-7
D-0-0-0-0-2-2-2-2-5-5-5-5-7-7-7-7 x 3 (let ring)

Tap to rate this tab
# A B C D E F G H I J K L M N O P Q R S T U V W X Y Z