Song name
# A B C D E F G H I J K L M N O P Q R S T U V W X Y Z

Misc Unsigned Bands - Randome Heroes - When There Gone tab

----------------------------------------------------------------------------
		        WHEN THERE GONE - Randome Heroes
----------------------------------------------------------------------------

Tabbed by:ironneanderthal
Email:ironneanderthal@hotmail.com

This is my first tab and i dunno what u think but i like it

Capo on the 7th fret

Tuning:EADGBe

Intro: Heavy Reverb, Slight Distortion

            E          Am
e|-2h3p2p0--0--2h3p20--0----|
B|-------0--0-------0--1----|
G|----------1----------2----|   x4
D|----------2----------2----|
A|----------2----------0----|
E|--------------------------|

Riff 1: Heavy Reverb, Distortion, Delay Phaser
    E      Am
e|--0--00--0-0--33330--|
B|--0------1-1---------|
G|--1------2-2---------|   x8
D|--2------2-2---------|
A|--2------0-0---------|
E|---------------------|

Riff 2: Heavy Reverb, Distortion, Heavy Delay Phaser
    E               Am              E               Am
e|--0-0-0-0-0-0-0-x-0-0-0-0-0-0-0-x-0-0-0-0-0-0-0-x-0-----------|
B|--0-0-0-0-0-0-0-x-1-1-1-1-1-1-1-x-0-0-0-0-0-0-0-x-1-----------|
G|--1-1-1-1-1-1-1-x-2-2-2-2-2-2-2-x-1-1-1-1-1-1-1-x-2-----------|   x2
D|--2-2-2-2-2-2-2-x-2-2-2-2-2-2-2-x-2-2-2-2-2-2-2-x-2-----------|
A|--2-2-2-2-2-2-2-x-0-0-0-0-0-0-0-x-2-2-2-2-2-2-2-x-0-----------|
E|--0-0-0-0-0-0-0-x---------------x-0-0-0-0-0-0-0-x-------------|
                                                    P.M. . . . .

    E               Am              E               Am
e|--0-0-0-0-0-0-0-x-0-0-0-0-0-0-0-x-0-0-0-0-0-0-0-x-0-0-0-0-0-0-0-x--|
B|--0-0-0-0-0-0-0-x-1-1-1-1-1-1-1-x-0-0-0-0-0-0-0-x-1-1-1-1-1-1-1-x--|
G|--1-1-1-1-1-1-1-x-2-2-2-2-2-2-2-x-1-1-1-1-1-1-1-x-2-2-2-2-2-2-2-x--|   x1
D|--2-2-2-2-2-2-2-x-2-2-2-2-2-2-2-x-2-2-2-2-2-2-2-x-2-2-2-2-2-2-2-x--|
A|--2-2-2-2-2-2-2-x-0-0-0-0-0-0-0-x-2-2-2-2-2-2-2-x-0-0-0-0-0-0-0-x--|
E|--0-0-0-0-0-0-0-x---------------x-0-0-0-0-0-0-0-x---------------x--|

    F               G               F               G
e|--1-1-1-1-1-1-1-x-3-3-3-3-3-3-3-x-1-1-1-1-1-1-1-x-3-3-3-3-3-3-3-x----|
B|--1-1-1-1-1-1-1-x-3-3-3-3-3-3-3-x-1-1-1-1-1-1-1-x-3-3-3-3-3-3-3-x----|
G|--2-2-2-2-2-2-2-x-0-0-0-0-0-0-0-x-2-2-2-2-2-2-2-x-0-0-0-0-0-0-0-x----|  x1
D|--3-3-3-3-3-3-3-x-0-0-0-0-0-0-0-x-3-3-3-3-3-3-3-x-0-0-0-0-0-0-0-x----|
A|----------------x-2-2-2-2-2-2-2-x---------------x-2-2-2-2-2-2-2-x----|
E|----------------x-3-3-3-3-3-3-3-x---------------x-3-3-3-3-3-3-3-x----|

   D
e|-2-2-2-2-2-2-2-2-2--x--2h3p2p0----|
B|-3-3-3-3-3-3-3-3-3--x--------0----|
G|-2-2-2-2-2-2-2-2-2--x-------------|   x1
D|-0-0-0-0-0-0-0-0-0--x-------------|
A|--------------------x-------------|
E|--------------------x-------------|

Riff 1
Riff 2
Riff 1
Riff 2

Capo off in drum solo

Solo: Heavy Reverb, Distortion, Slight Delay Phaser

e|--800700500708070500300200305030-800700500708070500300200305030----------|
B|-------------------------------------------------------------------------|
G|-------------------------------------------------------------------------|
D|-------------------------------------------------------------------------|
A|-------------------------------------------------------------------------|
E|-------------------------------------------------------------------------|


e|--8070507080705~---------------------------------------------------------|
B|-----------------5030203050302~------------------------------------------|
G|--------------------------------807050800700507080705~-------------------|
D|-------------------------------------------------------------------------|
A|-------------------------------------------------------------------------|
E|-------------------------------------------------------------------------|

                        Let Ring.... (Whammy bar)
e|-8p7p55-8p7p55-8p7p55-5~------------------------0------------------------|
B|------------------------------------------------0------------------------|
G|------------------------------------------------1------------------------|
D|------------------------------------------------2------------------------|
A|------------------------------------------------2------------------------|
E|------------------------------------------------0------------------------|


| /    slide up
| \    slide down
| h    hammer-on
| p    pull-off
| ~    vibrato
| +    harmonic
| x    Mute note
| P.M  Palm Mute
============================================================================
Tap to rate this tab
# A B C D E F G H I J K L M N O P Q R S T U V W X Y Z