Song name
# A B C D E F G H I J K L M N O P Q R S T U V W X Y Z

Misc Unsigned Bands - Invisible Guardians - Slow Suicide tab

This is a song by my band. I am the lead singer and I wrote this song. I thought I would 
it up and let you guys see it before we get big.If you have any questions please e-mail 
stingray8551@yahoo .com

Guitar 1         (repeat x4)
E>--------------------------------------------------------------------------|
A>--------------------------------------------------------------------------|
D>----0---0---0---0---0---0--0--0--0--0--0----------------------------------|
G>-10--10--10--12--12--12--9--9--9--7--7--7---------------------------------|
B>--------------------------------------------------------------------------|
E>--------------------------------------------------------------------------|


when you play the second guitar part come in the second time the first guitar plays.

guitar 2 (repeat x2)
E>--------------------------------------------------------------------------|
A>--------------------------------------------------------------------------|
D>----0---0---0--0--0--0---0---0---0--0--0----------------------------------|
G>-10--10--10--9--9--9--12--12--12--7--7--7---------------------------------|
B>--------------------------------------------------------------------------|
E>--------------------------------------------------------------------------|
Tap to rate this tab
# A B C D E F G H I J K L M N O P Q R S T U V W X Y Z