Song name
# A B C D E F G H I J K L M N O P Q R S T U V W X Y Z

Misc Unsigned Bands - Fresh Off The Boat - Winning Streak tab

"Winning Streak" by Fresh Off the Boat
Tabbed by Kunal P. (freedoggy77@gmail.com)

Intro-

e--------------------------------------------------------------------------------------------------|
B-14-14-14-14-14-14-14-14-12-12-12-12-12-12-12-12-10-10-10-10-10-10-10-10-12-12-12-12-12-12-12-12--|
G-14-14-14-14-14-14-14-14-13-13-13-13-13-13-13-13-11-11-11-11-11-11-11-11-13-13-13-13-13-13-13-13--|
D--------------------------------------------------------------------------------------------------|
A--------------------------------------------------------------------------------------------------|
E--------------------------------------------------------------------------------------------------|

Verse 1-

e--------------------|-----------------------------------------|
B--------------------|-----------------------------------------|
G--------------------|------------------555555555--------------|
D-7-7-5-5-3----------|77777777-33333333-555555555-55555555-----|
A-7-7-5-5-3(let ring)|77777777-33333333-333333333-55555555-----|
E-5-5-3-3-1----------|55555555-11111111-----------33333333 x 2-|

Pre-Chorus-

e-----------|
B-----------|
G-----------|
D-7-7-5-5-3-|
A-7-7-5-5-3-|
E-5-5-3-3-1-| (let ring)

Chorus-

e-----------------------------------------|
B-----------------------------------------|
G-------------------44444444-77777777-----|
D-77777777-44444444-44444444-77777777-----|
A-77777777-44444444-22222222-55555555-----|
E-55555555-22222222------------------ x 2-|

e-------------------|
B-------------------|
G---------444-777---|
D-777-444-444-777-7-|
A-777-444-222-555-7-|
E-555-222---------5-| (let ring)

Bridge/Solo-

e--------------------------------------------------------------------------------------------------|
B-14-14-14-14-14-14-14-14-12-12-12-12-12-12-12-12-10-10-10-10-10-10-10-10-12-12-12-12-12-12-12-12--|
G-14-14-14-14-14-14-14-14-13-13-13-13-13-13-13-13-11-11-11-11-11-11-11-11-13-13-13-13-13-13-13-13--|
D--------------------------------------------------------------------------------------------------|
A--------------------------------------------------------------------------------------------------|
E--------------------------------------------------------------------------------------------------|

e-----------|
B-----------|
G-----------|
D-7-7-5-5-3-|
A-7-7-5-5-3-|
E-5-5-3-3-1-| (let ring)

Verse 2-

e------------------------------------------|
B------------------------------------------|
G-------------------555555555--------------|
D-77777777-33333333-555555555-55555555-----|
A-77777777-33333333-333333333-55555555-----|
E-55555555-11111111-----------33333333 x 2-|

e-----------|
B-----------|
G-----------|
D-7-7-5-5-3-|
A-7-7-5-5-3-|
E-5-5-3-3-1-| (let ring)

Chorus-

e-----------------------------------------|
B-----------------------------------------|
G-------------------44444444-77777777-----|
D-77777777-44444444-44444444-77777777-----|
A-77777777-44444444-22222222-55555555-----|
E-55555555-22222222------------------ x 2-|

e-------------------|
B-------------------|
G---------444-777---|
D-777-444-444-777-7-|
A-777-444-222-555-7-|
E-555-222---------5-| (let ring)

Outro-

e------------|
B------------|
G------------|
D-7-7-5-5-3--|
A-7-7-5-5-3--|
E-5-5-3-3-1--| (keep strumming this last note up and down until the other instruments 
down, then end with a slide down the fretboard)
Tap to rate this tab
# A B C D E F G H I J K L M N O P Q R S T U V W X Y Z