Guitaretab - guitar tabs
Song name
# A B C D E F G H I J K L M N O P Q R S T U V W X Y Z

Misc Unsigned Bands - Fresh Off The Boat - Hate Is A Strong Word tab

"Hate is a Strong Word" by Fresh Off the Boat
Tabbed by Kunal P. (freedoggy77@gmail.com)
Standard Tuning

Intro-

e--------------------------------------------------------------------|
B--------------------------------------------------------------------|
G------------666-------------444-------------222-------------444-----|
D-7-7-7-7-7--777--5-5-5-5-5--555--3-3-3-3-3--333--5-5-5-5-5--555-----|
A-7-7-7-7-7--777--5-5-5-5-5--555--3-3-3-3-3--333--5-5-5-5-5--555-----|
E-5-5-5-5-5--555--3-3-3-3-3--333--1-1-1-1-1--111--3-3-3-3-3--333 x 2-|

Verse 1-

e--------------------------------------------|
B--------------------------------------------|
G-------6-6--------4-4--------2-2--------4-4-|
D-7-7-7-7-7--5-5-5-5-5--3-3-3-3-3--5-5-5-5-5-|
A-7-7-7-7-7--5-5-5-5-5--3-3-3-3-3--5-5-5-5-5-|
E-5-5-5-5-5--3-3-3-3-3--1-1-1-1-1--3-3-3-3-3-|

e--------------------------------------------------------------------|
B--------------------------------------------------------------------|
G---------6-6-6-6----------4-4-4-4----------2-2-2-2----------4-4-4-4-|
D-7-7-7-7-7-7-7-7--5-5-5-5-5-5-5-5--3-3-3-3-3-3-3-3--5-5-5-5-5-5-5-5-|
A-7-7-7-7-7-7-7-7--5-5-5-5-5-5-5-5--3-3-3-3-3-3-3-3--5-5-5-5-5-5-5-5-|
E-5-5-5-5-5-5-5-5--3-3-3-3-3-3-3-3--1-1-1-1-1-1-1-1--3-3-3-3-3-3-3-3-|

Pre-Chorus

e-----------|
B-----------|
G-----------|
D-7-7-5-5-3-|
A-7-7-5-5-3-|
E-5-5-3-3-1-| (let ring)

Chorus-

e-------------------------------------|
B-------------------------------------|
G-----------------7-7-7-7-9-9-9-9-----|
D-7-7-7-7-9-9-9-9-7-7-7-7-9-9-9-9-----|
A-7-7-7-7-9-9-9-9-5-5-5-5-7-7-7-7-----|
E-5-5-5-5-7-7-7-7---------------- x 3-|

e-----------------------|
B-----------------------|
G-9-9-9-7-7-7-----------|
D-9-9-9-7-7-7-9-9-9-9-9-|
A-7-7-7-5-5-5-9-9-9-9-9-|
E-------------7-7-7-7-7-|

Verse 2
[ Tab from: http://www.guitaretab.com/m/misc-unsigned-bands/71036.html ]
e-----------------------------------------------------|
B-----------------------------------------------------|
G-------------5-5-5-5-5-5-7-7-7-7-7-7-----------------|
D-5-5-5-5-5-5-5-5-5-5-5-5-7-7-7-7-7-7-7-7-7-7-7-7-----|
A-5-5-5-5-5-5-3-3-3-3-3-3-5-5-5-5-5-5-7-7-7-7-7-7-----|
E-3-3-3-3-3-3-------------------------5-5-5-5-5-5 x 2-|
pm***********************************************

e-------------------------------------------------|
B-------------------------------------------------|
G-------------5-5-5-5-5-5-7-7-7-7-7-7-------------|
D-5-5-5-5-5-5-5-5-5-5-5-5-7-7-7-7-7-7-7-7-7-7-7-7-|
A-5-5-5-5-5-5-3-3-3-3-3-3-5-5-5-5-5-5-7-7-7-7-7-7-|
E-3-3-3-3-3-3-------------------------5-5-5-5-5-5-|

e---------------------------------------|
B---------------------------------------|
G-------------5-5-5-5-5-5-7-7-7-7-7-7---|
D-5-5-5-5-5-5-5-5-5-5-5-5-7-7-7-7-7-7-7-|
A-5-5-5-5-5-5-3-3-3-3-3-3-5-5-5-5-5-5-7-|
E-3-3-3-3-3-3-------------------------5-| (let ring)

Solo-

e-----------------------------------------------------------------------------------|
B-10-10-10-10-10-8-8-8--------------------------------------------------------------|
G----------------------9-9-9-9-9-10-10-10----------------------------10-10-10-10-10-|
D-----------------------------------------10-10-12-10-10-15-10-10-12-10-10-10-10-10-|
A--------------------------------------------------------------------8--8--8--8--8--|
E-----------------------------------------------------------------------------------|

Chorus-

e-------------------------------------|
B-------------------------------------|
G-----------------7-7-7-7-9-9-9-9-----|
D-7-7-7-7-9-9-9-9-7-7-7-7-9-9-9-9-----|
A-7-7-7-7-9-9-9-9-5-5-5-5-7-7-7-7-----|
E-5-5-5-5-7-7-7-7---------------- x 3-|

e-----------------------|
B-----------------------|
G-9-9-9-7-7-7-----------|
D-9-9-9-7-7-7-9-9-9-9-9-|
A-7-7-7-5-5-5-9-9-9-9-9-|
E-------------7-7-7-7-7-|

Outro-

e---------------------------------------------------|
B---------------------------------------------------|
G---------6-6---------4-4---------2-2---------4-4-8-|
D-7-7-7-7-7-7-5-5-5-5-5-5-3-3-3-3-3-3-5-5-5-5-5-5-7-|
A-7-7-7-7-7-7-5-5-5-5-5-5-3-3-3-3-3-3-5-5-5-5-5-5-7-|
E-5-5-5-5-5-5-3-3-3-3-3-3-1-1-1-1-1-1-3-3-3-3-3-3-5-| (cut short a little)
Related for Fresh Off The Boat - Hate Is A Strong Word tab
Advertisement will be closed in 10 seconds