Song name
# A B C D E F G H I J K L M N O P Q R S T U V W X Y Z

Misc Unsigned Bands - Kettle Of Spoonfish - Treading Through The Ashes tab

Treading Through The Ashes
 Kettle Of Spoonfish


e|-------------------------------------|
B|-------------------------------------|
G|-------------------------------------|
D|-------------------------------------|	X2
A|--5----5---3-----3---6-----6---5----5|
D|0--0-0---0---0-0---0---0-0---0--0-0--|

e|----------------------------|
B|----------------------------|
G|----------------------------|
D|7777777755555558888887777777|		X4
A|5555555533333336666665555555|
D|----------------------------|

e|---------------------------------------|
B|---------------------------------------|
G|---------------------------------------|
D|7-7--------5-5----------8-8-8-8-7-7-7-7|		X2
A|5-5--------3-3----------6-6-6-6-5-5-5-5|
D|---------------------------------------|

Now stand up And fight back, For your right to belong.

e|-------------------------------------------------------|
B|-------------------------------------------------------|
G|-------------------------------------------------------|
D|--3----3---3----3-----3---3---3-----3---3---3-----3---3|	X8
A|5--5-5---5----3---3-3---3---1---1-1---1---3---3-3---3--|
D|-------------------------------------------------------|

were rebuilding the empire...

you can work out the order yourself
Tap to rate this tab
# A B C D E F G H I J K L M N O P Q R S T U V W X Y Z