Song name
# A B C D E F G H I J K L M N O P Q R S T U V W X Y Z

Misc Unsigned Bands - Silence No More - Prelude tab

This is the album opener to the genocidal pledge by silence no more
its an instrumental.....drop d tuning

intro)
|-----5--------|
|-------5------|
|---------5----|
|---7-------7--|4x then 
|-0------------|
|--------------|

Riff 1 a)
Gtr 1
|-----5-----------5----------|
|-------5-----------5--------|
|---------5-----------5------|
|---7-------7---7-------7----|
|-0-----------0-----------0--|
|----------------------------|
|
|
|riff 1 b)    (play both together 4 times)
gtr 2
|-----------------------------|
|-----------------------------|
|-----------------------------|
|-----------------------------|
|-----0------3-----1-----0h1--|
|-0-3---3-0----3-0---3-0------|


riff 2 a)
gtr 1
|-----------------------------------------------------------------------|
|-----------10------------------10-----------------10-------------8-----|
|------11-----11---11------11-----11--11------11-----11--11----9---9-9--|
|---11---11-----11-------11--11-----11------11--11-----11-----9-9---9---|
|-9---------------------------------------------------------------------|
|---------------------11------------------9-----------------7-----------|
|
|             (play both together 2x)
|
|riff 2 b) 
gtr 2
|--------------------------------------|
|--------------------------------------|
|--2-2-2-2--2-2-2-2--2-2-2-2--2-2-2-2--|
|----------3-3-3-3--5-5-5-5--0-0-0-0---|
|-0-0-0-0------------------------------|
|--------------------------------------|

then back to riff A & B
then

outro)
gtr 1
|-------------------------------------|
|-------------------------------------|
|-------------------------------------|
|---3-------2-3-2----2-------1-2-2-4--|
|-5--0-5---3-3------2-0-2---2-2-2-----|
|-------------------------------------|
|
|
|
|gtr 2
|---------------------------0---------|
|-3-5-3-1---0-1-0-----------0---------|
|-4-5-4-2---2-2-2-2---2-2-2-2---------|
|-----------------2---2-3-2-2---------|
|-------------------------------------|
|-------------------------------------|
www.silencenomore.com
Tap to rate this tab
# A B C D E F G H I J K L M N O P Q R S T U V W X Y Z