Song name
# A B C D E F G H I J K L M N O P Q R S T U V W X Y Z

Misc Unsigned Bands - Elemental Distress - Doom Of Darkness tab

Help us improve GuitareTab! Take a short survey!
                    Doom of Darkness                                 


                                                     Elemental Distress/Ben Chui
Guitarist



                                                         
E||--------------------------|--------------------------|
B||--------------------------|--------------------------|
G||--------------------------|--------------------------|
D||--------------------------|--------------------------|
A||--------------------9-----|-----------------7--------|
E||--0--0--0--0--0--0--7--0--|--0--0--0--0--0--5--0--0--|


                                                                               
--------------------------|--------------------------|------------------------|
--------------------------|--------------------------|------------------------|
--------------------------|--------------------------|------------------------|
--------------------------|--7-----5-----7-----5-----|--5--4-----7----5----7--|
--------------5-----3-----|--5-----3-----5-----3-----|--3--2--2--5----3----5--|
--0--0--0--0--3--0--1--0--|-----0-----0-----0-----0--|--------0---------------|


                                                                               
-------------------------|-------------------------|--------------------------|
-------------------------|-------------------------|--------------------------|
-------------------------|-------------------------|--------------------------|
--9----------------------|--7----------------------|--------------------------|
--7----------------------|--5----2--2--2--2--2--2--|--5--5--5--5--5--5--5--5--|
-------8--7--0--1--3--5--|-------0--0--0--0--0--0--|--3--3--3--3--3--3--3--3--|


                                                      
--------------------------|--------------------------|
--------------------------|--------------------------|
--------------------------|--------------------------|
--5--5--5--5--5--5--5--5--|--------------------------|
--3--3--3--3--3--3--3--3--|--7--7--7--7--7--7--7--7--|
--------------------------|--5--5--5--5--5--5--5--5--|


                                                      
--------------------------|--------------------------|
--------------------------|--------------------------|
--------------------------|--------------------------|
--7--7--7--7--7--7--7--7--|--7--7--7--7--7--7--7--7--|
--5--5--5--5--5--5--5--5--|--5--5--5--5--5--5--5--5--|
--------------------------|--------------------------|


                                                      
--------------------------|--------------------------|
--------------------------|--------------------------|
--------------------------|--------------------------|
--------------------------|--------------------------|
--9--9--9--9--9--9--9--9--|--7--7--7--7--7--7--7--7--|
--7--7--7--7--7--7--7--7--|--5--5--5--5--5--5--5--5--|


                                                       
----------------------------|-------------------------|
----------------------------|-------------------------|
----------------------------|-------------------------|
--7--7--7--9--9--9--10--10--|--10--7--7--7------------|
----------------------------|---------------5----6----|
--5--5--5--7--7--7--8---8---|--8---5--5--5--3----4----|


                                                     
-------------------------|--------------------------|
-------------------------|--------------------------|
-------------------------|--------------------------|
-------7-----7-----9-----|--9-----9-----9-----------|
--7----5--7--5--7--7--7--|--7--7--7--9--7--9--14----|
--5-------5-----5-----5--|-----5-----7-----7--12----|


                               
------------------------------|
------------------------------|
------------------------------|
------------------------------|
--14--15--14----14--15--14----|
--12--13--12----12--13--12----|


                                                   
--------------------------------------------------|
--------------------------------------------------|
--------------------------------------------------|
--------------------------------------------------|
--14/15/14/15/14/15/14/15/14/15/14/15/14/15/14/15/|
--12/13/12/13/12/13/12/13/12/13/12/13/12/13/12/13/|


                                                 
------------------------------------------------|
------------------------------------------------|
------------------------------------------------|
------------------------------------------------|
--18--15/14/15/14/15/14/15/14/15/14/15/14/15/14/|
--16--13/12/13/12/13/12/13/12/13/12/13/12/13/12/|


                                                 
------------------------------------------------|
------------------------------------------------|
------------------------------------------------|
------------------------------------------------|
--17--15/14/15/14/15/14/15/14/15/14/15/14/15/14/|
--15--13/12/13/12/13/12/13/12/13/12/13/12/13/12/|


                                                                           
------------------------------------------------|-------------------------|
------------------------------------------------|-------------------------|
------------------------------------------------|-------------------------|
------------------------------------------------|-------------------------|
--16--15/14/15/14/15/14/15/14/15/14/15/14/15/14/|--7----7--7--7--7--7--7--|
--14--13/12/13/12/13/12/13/12/13/12/13/12/13/12/|--5----5--5--5--5--5--5--|


                                                      
--------------------------|--------------------------|
--------------------------|--------------------------|
--------------------------|--------------------------|
--------------------------|--------------------------|
--------------------9-----|-----------------7--------|
--0--0--0--0--0--0--7--0--|--0--0--0--0--0--5--0--0--|


                                                                               
--------------------------|--------------------------|------------------------|
--------------------------|--------------------------|------------------------|
--------------------------|--------------------------|------------------------|
--------------------------|--7-----5-----7-----5-----|--5--4-----7----5----7--|
--------------5-----3-----|--5-----3-----5-----3-----|--3--2--2--5----3----5--|
--0--0--0--0--3--0--1--0--|-----0-----0-----0-----0--|--------0---------------|


                                                                               
-------------------------|-------------------------|--------------------------|
-------------------------|-------------------------|--------------------------|
-------------------------|-------------------------|--------------------------|
--9----------------------|--7----------------------|--------------------------|
--7----------------------|--5----2--2--2--2--2--2--|--5--5--5--5--5--5--5--5--|
-------8--7--0--1--3--5--|-------0--0--0--0--0--0--|--3--3--3--3--3--3--3--3--|


                                                      
--------------------------|--------------------------|
--------------------------|--------------------------|
--------------------------|--------------------------|
--5--5--5--5--5--5--5--5--|--------------------------|
--3--3--3--3--3--3--3--3--|--7--7--7--7--7--7--7--7--|
--------------------------|--5--5--5--5--5--5--5--5--|


                                                      
--------------------------|--------------------------|
--------------------------|--------------------------|
--------------------------|--------------------------|
--7--7--7--7--7--7--7--7--|--7--7--7--7--7--7--7--7--|
--5--5--5--5--5--5--5--5--|--5--5--5--5--5--5--5--5--|
--------------------------|--------------------------|


                                                      
--------------------------|--------------------------|
--------------------------|--------------------------|
--------------------------|--------------------------|
--------------------------|--------------------------|
--9--9--9--9--9--9--9--9--|--7--7--7--7--7--7--7--7--|
--7--7--7--7--7--7--7--7--|--5--5--5--5--5--5--5--5--|


                                                       
----------------------------|-------------------------|
----------------------------|-------------------------|
----------------------------|-------------------------|
--7--7--7--9--9--9--10--10--|--10--7--7--7------------|
----------------------------|---------------5----6----|
--5--5--5--7--7--7--8---8---|--8---5--5--5--3----4----|


                                                     
-------------------------|--------------------------|
-------------------------|--------------------------|
-------------------------|--------------------------|
-------7-----7-----9-----|--9-----9-----9-----------|
--7----5--7--5--7--7--7--|--7--7--7--9--7--9--14----|
--5-------5-----5-----5--|-----5-----7-----7--12----|


                               
------------------------------|
------------------------------|
------------------------------|
------------------------------|
--14--15--14----14--15--14----|
--12--13--12----12--13--12----|


                                                   
--------------------------------------------------|
--------------------------------------------------|
--------------------------------------------------|
--------------------------------------------------|
--14/15/14/15/14/15/14/15/14/15/14/15/14/15/14/15/|
--12/13/12/13/12/13/12/13/12/13/12/13/12/13/12/13/|


                                                 
------------------------------------------------|
------------------------------------------------|
------------------------------------------------|
------------------------------------------------|
--18--15/14/15/14/15/14/15/14/15/14/15/14/15/14/|
--16--13/12/13/12/13/12/13/12/13/12/13/12/13/12/|


                                                 
------------------------------------------------|
------------------------------------------------|
------------------------------------------------|
------------------------------------------------|
--17--15/14/15/14/15/14/15/14/15/14/15/14/15/14/|
--15--13/12/13/12/13/12/13/12/13/12/13/12/13/12/|


                                                                           
------------------------------------------------|-------------------------|
------------------------------------------------|-------------------------|
------------------------------------------------|-------------------------|
------------------------------------------------|-------------------------|
--16--15/14/15/14/15/14/15/14/15/14/15/14/15/14/|--7----7--7--7--7--7--7--|
--14--13/12/13/12/13/12/13/12/13/12/13/12/13/12/|--5----5--5--5--5--5--5--|


                     
-------------------||
-------------------||
-------------------||
-------------------||
--2~---------------||
--0----------------||


Related for Elemental Distress - Doom Of Darkness tab