Song name
# A B C D E F G H I J K L M N O P Q R S T U V W X Y Z

Misc Unsigned Bands - Bullets Goes Better - A Mausoleums Minuet tab

sup guys This is i think the best song of my band dudes its just a medolic song
beautifull and kinda short but you can improvise with it very well so here it goes.

Intro.
e|-2---2--3---3--5---5--7---7--8---8--7---7--5----5--3---3--2---2-|
B|----0------0------0------0------0------0-------0------0------0--|
D|---0------0------0------0------0------0------0-------0------0---|
G|----------------------------------------------------------------|
A|----------------------------------------------------------------|
E|-2------3------5------7------8------7------5-------3------2-----|

You finish with a medolic Em.

Them this.

e|-3---3--2---2--5---5--7---7--8----8--7---7--5---5--2----2--3---3-|
B|----0------0------0------0------0-------0------0-------0------0--|
G|---0------0------0------0------0-------0------0-------0------0---|
D|-----------------------------------------------------------------|
A|-----------------------------------------------------------------|
E|-0------0------0------0------0-------0------0------0-------0-----|

then finish like this.

e|-2-3-5-7-8~-7-5-3-2~-3/5/7-8-7-5-3-2-3-5----|
B|-----------------------------------------5--|
G|--------------------------------------------|
D|--------------------------------------------|
A|--------------------------------------------|
E|--------------------------------------------|

It sounds beutyfull on acoustic guitar.
Tap to rate this tab
# A B C D E F G H I J K L M N O P Q R S T U V W X Y Z