Guitaretab - guitar tabs
Song name
# A B C D E F G H I J K L M N O P Q R S T U V W X Y Z

Misc Unsigned Bands - Eskimo - Superstar tab

#-----------------------------------------------------------------------------#
#-- File created with Instab - http://www.pconline.com/~smcarey/instab.html --#
#-----------------------------------------------------------------------------#

Band website: http://www.eskimo.spb.ru/#
Author/Artist: Eskimo
Title: SuperSTAR
Album: Putyan
Transcribed by: Mario Biondic
Email: finalfantasyone@hotmail.com

Note: This is my first tab so if you find that somethings missing or that some things
      are inacurate mail me at any time for corrections or opinions.
      This is Drop D tuning and one kickass song by Eskimo, Eskimo is a Russian Underground band,
      I had just heard of them couple months back in 2005 and had been given a cd from
      a russian friend of mine , this is their second album, and when I saw that there were
      absolutely no tabs of them I decided to start with this one. It's the 3d track on the album.
      I't s not a hard song to learn but the licks are very cool. I'll be tabbing the whole album
      soon.

      pm = palm mute, h = hammer on, p = pull off, b = bend
[ Tab from: http://www.guitaretab.com/m/misc-unsigned-bands/71249.html ]
   intro with delay
e-|-16-17------------|--17-18-17----20-17----18-17-20----17-18-17--------------|
b-|------17-18-------|-------------------------------------------17-18---------|
g-|-----------18-19--|------------------------------------------------18-19----|
D-|------------------|---------------------------------------------------------|
A-|------------------|---------------------------------------------------------|
D-|------------------|---------------------------------------------------------|
                  2x                                                      2x
   verse bridge
e-|----------------------------------------------------------------------------|
b-|-15-14-15-14-15-14-15/17----------------------------------------------------|
g-|----------------------------------------------------------------------------|
D-|----------------------------------------------------------------------------|
A-|----------------------------------------------------------------------------|
D-|----------------------------------------------------------------------------|
                         1x
   verse 1 with delay
e-|-16-17------------|-17-18-17----20-17----18-17-20----17-18-17---------------|
b-|------17-18-------|------------------------------------------17-18----------|
g-|-----------18-19--|-----------------------------------------------18-19-----|
D-|------------------|---------------------------------------------------------|
A-|------------------|---------------------------------------------------------|
D-|------------------|---------------------------------------------------------|
                  2x                                                     2x
   chorus bridge 1
e-|----------------------------------------------------------------------------|
b-|----------------------------------------------------------------------------|
g-|-7-6-7-6-7-6-7/9------------------------------------------------------------|
D-|----------------------------------------------------------------------------|
A-|----------------------------------------------------------------------------|
D-|----------------------------------------------------------------------------|
                  1x
   chorus bridge 2
e-|----------------------------------------------------------------------------|
b-|----------------------------------------------------------------------------|
g-|---7-------6-------7-------9------------------------------------------------|
D-|----------------------------------------------------------------------------|
A-|-5---5-5/4---4-4/5---5-5/7---7-7/8-8/12-------------------------------------|
D-|----------------------------------------------------------------------------|
   pm                                    1x
   chorus
e-|----------------------------------------------------------------------------|
b-|----------------------------------------------------------------------------|
g-|---7-------6-------7-------9------------------------------------------------|
D-|----------------------------------------------------------------------------|
A-|-5---5-5/4---4-4/5---5-5/7---7-7/8-8/12-------------------------------------|
D-|----------------------------------------------------------------------------|
   no pm let A string notes ring         4x
   break 1
e-|----------------|-----------------------------------------------------------|
b-|----------------|-----------------------------------------------------------|
g-|-x--x--x--x--x--|-----------------------------------------------------------|
D-|-0--3--2--6--7--|-----------------------------------------------------------|
A-|-0--3--2--6--7--|-----------------------------------------------------------|
D-|-0--3--2--6--7--|-----------------------------------------------------------|
                4x
   fill 1
e-|-16b--------------16b--------------16b--------------16b---------------------|
b-|-------------14b--------------14b--------------14b--------------14b---------|
g-|----14-13--14--------14-13--14--------14-13--14--------14-13--14------------|
D-|----------------------------------------------------------------------------|
A-|----------------------------------------------------------------------------|
D-|----------------------------------------------------------------------------|
   guitar 1
                    fill 2
e-|----------------|-----------------------------------------------------------|
b------------------|-----------------------------------------------------------|
g-|----------------|---------5-7-----------------------7-5---------------------|
D-|----------------|----5-6-7-----------------------------7-6-5----------------|
A-|----------------|-5-8---------------------------------------8-5-------------|
D-|----------------|-----------------------------------------------------------|
                    guitar 2 pm
   break 2
e-|--------------------------10------------------------------------------------|
b-|----------------------------10----------------------------------------------|
g-|--------------------7-9-10-------------------------7h8p7h8p7h8p7h8p7h8------|
D-|-7-5--5-5-8--8-8-4--------------7-5--5-5-8--8-8-4---------------------------|
A-|-7-5--5-5-8--8-8-4--------------7-5--5-5-8--8-8-4---------------------------|
D-|-7-5--5-5-8--8-8-4--------------7-5--5-5-8--8-8-4---------------------------|
                       pm                                               2x
   with delay
e-|-16-17------------|--17-18-17----20-17----18-17-20----17-18-17--------------|
b-|------17-18-------|-------------------------------------------17-18---------|
g-|-----------18-19--|------------------------------------------------18-19----|
D-|------------------|---------------------------------------------------------|
A-|------------------|---------------------------------------------------------|
D-|------------------|---------------------------------------------------------|
                  2x                                                      2x
   verse bridge
e-|----------------------------------------------------------------------------|
b-|----------------------------------------------------------------------------|
g-|-7-6-7-6-7-6-7/9------------------------------------------------------------|
D-|----------------------------------------------------------------------------|
A-|----------------------------------------------------------------------------|
D-|----------------------------------------------------------------------------|
                  1x
   verse 2 with delay
e-|-16-17------------|--17-18-17----20-17----18-17-20----17-18-17--------------|
b-|------17-18-------|-------------------------------------------17-18---------|
g-|-----------18-19--|------------------------------------------------18-19----|
D-|------------------|---------------------------------------------------------|
A-|------------------|---------------------------------------------------------|
D-|------------------|---------------------------------------------------------|
                  2x                                                      2x
   chorus bridge 1
e-|----------------------------------------------------------------------------|
b-|-15-14-15-14-15-14-15/17----------------------------------------------------|
g-|----------------------------------------------------------------------------|
D-|----------------------------------------------------------------------------|
A-|----------------------------------------------------------------------------|
D-|----------------------------------------------------------------------------|
                          1x
   chorus bridge 2
e-|----------------------------------------------------------------------------|
b-|----------------------------------------------------------------------------|
g-|---7-------6-------7-------9------------------------------------------------|
D-|----------------------------------------------------------------------------|
A-|-5---5-5/4---4-4/5---5-5/7---7-7/8-8/12-------------------------------------|
D-|----------------------------------------------------------------------------|
    pm                                   1x
   chorus                                    fill
e-|-----------------------------------------|-----------16-17------------------|
b-|-----------------------------------------|--15-17-18------------------------|
g-|---7-------6-------7-------9-------------|----------------------------------|
D-|-----------------------------------------|----------------------------------|
A-|-5---5-5/4---4-4/5---5-5/7---7-7/8-8/12--|----------------------------------|
D-|-----------------------------------------|----------------------------------|
    no pm let A string notes ring        4x                 4x
   break build up                                  fill
e-|-----------------------------------------------|-----------16-17-------------|
b-|-----------------------------------------------|--15-17-18-------------------|
g-|-777777-76-66666-6/7-77777-7/9-99-9/10-10/14--|------------------------------|
D-|-xxxxxx-xx-xxxxx-x/x-xxxxx-x/x-xx-x/-x--x/-x--|------------------------------|
A-|-555555-54-44444-4/5-55555-5/7-77-7/-8--8/12--|------------------------------|
D-|-----------------------------------------------|-----------------------------|
                                               3x                 3x
                                           fill
e-|---------------------------------------|----------16-17----------------------|
b-|---------------------------------------|--15-17-18---------------------------|
g-|-777777-76-66666-6/7-77777-76-66666--|---------------------------------------|
D-|-xxxxxx-xx-xxxxx-x/x-xxxxx-xx-xxxxx--|---------------------------------------|
A-|-555555-54-44444-4/5-55555-54-44444--|---------------------------------------|
D-|---------------------------------------|-------------------------------------|
   last time
   break 1
e-|----------------|-----------------------------------------------------------|
b-|----------------|-----------------------------------------------------------|
g-|-x--x--x--x--x--|-----------------------------------------------------------|
D-|-0--3--2--6--7--|-----------------------------------------------------------|
A-|-0--3--2--6--7--|-----------------------------------------------------------|
D-|-0--3--2--6--7--|-----------------------------------------------------------|
               4x
   fill 1
e-|-16b--------------16b--------------16b--------------16b---------------------|
b-|-------------14b--------------14b--------------14b--------------14b---------|
g-|----14-13--14--------14-13--14--------14-13--14--------14-13--14------------|
D-|----------------------------------------------------------------------------|
A-|----------------------------------------------------------------------------|
D-|----------------------------------------------------------------------------|
   guitar 1
                    fill 2
e-|----------------|-----------------------------------------------------------|
b-|----------------|-----------------------------------------------------------|
g-|----------------|---------5-7-----------------------7-5---------------------|
D-|----------------|----5-6-7-----------------------------7-6-5----------------|
A-|----------------|-5-8---------------------------------------8-5-------------|
S-|----------------|-----------------------------------------------------------|
                    guitar 2 pm
   break 2
e-|--------------------------10------------------------------------------------|
b-|----------------------------10----------------------------------------------|
g-|--------------------7-9-10-------------------------7h8p7h8p7h8p7h8p7h8------|
D-|-7-5--5-5-8--8-8-4--------------7-5--5-5-8--8-8-4---------------------------|
A-|-7-5--5-5-8--8-8-4--------------7-5--5-5-8--8-8-4---------------------------|
D-|-7-5--5-5-8--8-8-4--------------7-5--5-5-8--8-8-4---------------------------|
                       pm                                                2x

   Have Fun!!!
Related for Eskimo - Superstar tab
Advertisement will be closed in 10 seconds