Song name
# A B C D E F G H I J K L M N O P Q R S T U V W X Y Z

Misc Unsigned Bands - Pull My Finger - Roll The Dice Acoustic tab

Song: Roll the dice
Verision: Acoustic
Band: Pull my finger? (www.pmfmusic.com)

Strum:Down,down,up,up,down,up


Verse and intro
E---0--0--0--0--0--0----|
B---0--0--0--0--0--0----|
G---1--4--6--4--6--8----|
D---2--4--6--4--7--9----|
A---2--2--4--6--7--9----|
E---x--x--x--x--5--7----|

Play this before repeating the above:
E---0--0--0----------------------------------|
B---0--0--0----------------------------------|
G---1--2--4----------------------------------|
D---2--2--4----------------------------------|
A---2--0--2----------------------------------|
E---x--x--x----------------------------------|

The chorus is with the same chords, but not the same way. Try listening to it and you'll 
it.

Solo:
E-----------------------------------------------|
B-----------------------------------------------|
G-9----8-9-11----13-11-9-8-9-11-----------------|
D-------------------------------9/11-9----6-7-6-|
A-----------------------------------------------|
E-----------------------------------------------|


E-----------------------------------------------|
B-9-10-12---14-12-10--9p10-9--------------------|
G----------------------------11-9------6-8-9----|
D-----------------------------------------------|
A-----------------------------------------------|
E-----------------------------------------------|
Tap to rate this tab
# A B C D E F G H I J K L M N O P Q R S T U V W X Y Z