Song name
# A B C D E F G H I J K L M N O P Q R S T U V W X Y Z

Misc Unsigned Bands - Fresh Off The Boat - Life Goes On tab

"Life Goes On" by Fresh Off the Boat
Tabbed by Kunal P. (freedoggy77@gmail.com)
Standard Tuning

Intro-

e-----------------------|
B-----------------------|
G--5--5-3-3-2-3-2-------|
D----------------3------|
A-3--3------------------|
E-----------------  x 2-|

e-----------------------------------|
B-----------------------------------|
G-5-5-5-5-3-3-2-3-2---5-3-2-3-2-----|
D-5---5------------3b------------3--|b (let ring)
A-3---3-----------------------------|
E-----------------------------------|

Verse 1-

e-------------------------------------|
B-------------------------------------|
G-55555555-33333333-------------------|
D-55555555-33333333-33333333-55555555-|
A-33333333-11111111-33333333-55555555-|
E-------------------11111111-33333333-|
pm***********************************

e-------------------------------------|
B-------------------------------------|
G-55555555-33333333-------------------|
D-55555555-33333333-33333333-55555555-|
A-33333333-11111111-33333333-55555555-|
E-------------------11111111-33333333-|
pm************************** (dont pm the G# chord)

Pre-Chorus

e-----------|
B-----------|
G-5-5-3-3---|
D-5-5-3-3-3-|
A-3-3-1-1-3-| (let ring)
E---------1-|

Chorus-

e------------------------|
B------------------------|
G-5555-7777--------------|
D-5555-7777-7777-555-----|
A-3333-5555-7777-555-----|
E-----------5555-333 x 2-|

e------------------|
B------------------|
G-5555-7777--------|
D-5555-7777-7777-5-|
A-3333-5555-7777-5-|
E-----------5555-3-| (let ring)

Bridge-

e--------------------------------------|
B--------------------------------------|
G-------------------66666666-333333333-|
D-33333333-66666666-66666666-333333333-|
A-33333333-66666666-44444444-111111111-|
E-11111111-44444444--------------------|

Interlude (played by either bass or guitar)

e---------------------------------------|
B---------------------------------------|
G---------------------------------------|
D---------------------------------------|
A--------------------44444444-111111111-|
E-111111111-44444444--------------------|

Solo-

e----------------------------------------12-10-12----|
B------------------------------------------------10--|b
G----------------------------------------------------|
D----------------------------------------------------|
A----1-4-88888888-44444444---------------------------|
E-1-4----------------------44444444-66666------------|

Verse 2-

e-------------------------------------|
B-------------------------------------|
G-55555555-33333333-------------------|
D-55555555-33333333-33333333-55555555-|
A-33333333-11111111-33333333-55555555-|
E-------------------11111111-33333333-|
pm***********************************

e-------------------------------------|
B-------------------------------------|
G-55555555-33333333-------------------|
D-55555555-33333333-33333333-55555555-|
A-33333333-11111111-33333333-55555555-|
E-------------------11111111-33333333-|
pm************************** (dont pm the G# chord)

Pre-Chorus

e-----------|
B-----------|
G-5-5-3-3---|
D-5-5-3-3-3-|
A-3-3-1-1-3-| (let ring)
E---------1-|

Chorus-

e------------------------|
B------------------------|
G-5555-7777--------------|
D-5555-7777-7777-555-----|
A-3333-5555-7777-555-----|
E-----------5555-333 x 2-|

e------------------|
B------------------|
G-5555-7777--------|
D-5555-7777-7777-5-|
A-3333-5555-7777-5-|
E-----------5555-3-| (let ring)

Outro-

e-------------------|
B-------------------|
G--5--5-3-3-2-3-2---|
D----------------3--|b (let ring)
A-3--3--------------|
E-------------------|
Tap to rate this tab
# A B C D E F G H I J K L M N O P Q R S T U V W X Y Z