Song name
# A B C D E F G H I J K L M N O P Q R S T U V W X Y Z

Misc Unsigned Bands - Skinny Minus - Wind Of Indifference tab

ok well if you are trying to learn this song you are a complete loser because this is a 
thats not even recorded but here's the tab any
the date is 4/8/06 so if this band goes big don't yell at me for saying you're a loser 
you look at this tab
the band's website is www.myspace.com/skinnyminus


Intro - Guitar1:
-----------------------------------------|
-----------------------------------------|
---------------------55555555------------|
---77777777-33333333-55555555-55555555---|
---77777777-33333333-33333333-55555555---|
---55555555-11111111----------33333333---|


Intro - Guitar2:
------8-----------8-8-8-8----------------|
---10----10-10-10---------5-5/8-8--------|
-----------------------------------------|
-----------------------------------------|
-----------------------------------------|
-----------------------------------------|

Verse - Guitar1&2:
-----------------------------------------|
-----------------------------------------|
---------------------55555555------------|
---77777777-33333333-55555555-55555555---|
---77777777-33333333-33333333-55555555---|
---55555555-11111111----------33333333---|

Chorus(2x) - Guitar1&2:
-----------------------------------------|
-----------------------------------------|
-----------------------------------------|
---7777777777777777-3333333333333333-----|
---7777777777777777-3333333333333333-----|
---5555555555555555-1111111111111111-----|

-----------------------------------------|
-----------------------------------------|
---5555555555555555----------------------|
---5555555555555555-5555555555555555-----|
---3333333333333333-5555555555555555-----|
--------------------3333333333333333-----|

Intro - Guitar2:
------8-----------8-8-8-8----------------|
---10----10-10-10---------5-5/8-8--------|
-----------------------------------------|
-----------------------------------------|
-----------------------------------------|
-----------------------------------------|

Verse - Guitar1&2:
-----------------------------------------|
-----------------------------------------|
---------------------55555555------------|
---77777777-33333333-55555555-55555555---|
---77777777-33333333-33333333-55555555---|
---55555555-11111111----------33333333---|

Chorus(2x) - Guitar1&2:
-----------------------------------------|
-----------------------------------------|
-----------------------------------------|
---7777777777777777-3333333333333333-----|
---7777777777777777-3333333333333333-----|
---5555555555555555-1111111111111111-----|

-----------------------------------------|
-----------------------------------------|
---5555555555555555----------------------|
---5555555555555555-5555555555555555-----|
---3333333333333333-5555555555555555-----|
--------------------3333333333333333-----|

Intro - Guitar2:
------8-----------8-8-8-8----------------|
---10----10-10-10---------5-5/8-8--------|
-----------------------------------------|
-----------------------------------------|
-----------------------------------------|
-----------------------------------------|

Ending - Guitar1&2:
-----------------------------------------|
-----------------------------------------|
---------------------55555555------------|
---77777777-33333333-55555555-55555555---|
---77777777-33333333-33333333-55555555---|
---55555555-11111111----------33333333---|

Last Note - Guitar1&2:
-----------------------------------------|
-----------------------------------------|
-----------------------------------------|
---7-------------------------------------|
---7-------------------------------------|
---5-------------------------------------|

hope you enjoyed this tab it's right cause i'm the lead guitarist in the band
heck, you shouldn't even be looking this up because like i said before if you are trying 
play this song you are a loser
Tap to rate this tab
 
# A B C D E F G H I J K L M N O P Q R S T U V W X Y Z