Song name
# A B C D E F G H I J K L M N O P Q R S T U V W X Y Z

Misc Unsigned Bands - Disagree - Scarecrow Adams tab

enjoy this tab!!
i'm sure 99 % about this tab


fig.1
|---------------------------------------------------------------------0------|
|--------------------3-------3--------------------------3-------3---3--------|
|--2---2---2---2-----2---2---2---2----2---2---2---2-----2---2---2---2--------|
|--0---0---0---0---0-----0---0---0----0---0---0---0---0-----0----------------|
|----0---0---0---0---2-2---2---2---2----0---0---0---0---2-2---2---2----------|
|----------------------------------------------------------------------------|


fig.2                                                             slide
|--0---0---0---0-2-2---2---2---2---0----0---0---0-2-2---2---2---2-3-5--------|
|----3---3---3-------3---3---3---3----3---3---3-------3---3---3--------------|
|----------------------------------------------------------------------------|
|----------------------------------------------------------------------------|
|----------------------------------------------------------------------------|
|--0---------------3---------------0----------------3------------------------|


fig.3         H/O                  H/O                H/O
|--5---2---3-2-3-2---5-5---2---3-2-3-2---5-5---2---3-2-3-2-------0---2-0-2-0---|
|----0---0---------3-----0---0---------3-----0---0---------3-3-3---3---------3-|
|------------------------------------------------------------------------------|
|--0---------------------------------------------------------------------------|
|--------------------------------------------------------------2-------0-------|
|----------------------0-------------------3-----------------------------------|


fig.4
|------0-2-----0-2-----0-2-3-2-0-------0-2-----0-2-----0-2-3-2-0------------|
|----3-3-3---3-3-3---3-3-3-3-3---3---3-3-3---3-3-3---3-3-3-3-3---3----------|
|---------------------------------------------------------------------------|
|--0-------------------------------0----------------------------------------|
|------------------0-------2-----------------------0-------2----------------|
|----------3-------------------------------3--------------------------------|


Riff A
|-----------------------------------------------------------------------------|
|-----------------------------------------------------------------------------|
|-----------------------------------------------------------------------------|
|--12-12-12-11-9-7------------------------------------------------------------|
|--10-10-10--9-7-5------------------------------------------------------------|
|-----------------------------------------------------------------------------|

tab by silverspoon/ sidqhi91_asr@yahoo.com
Tap to rate this tab
 
# A B C D E F G H I J K L M N O P Q R S T U V W X Y Z