Song name
# A B C D E F G H I J K L M N O P Q R S T U V W X Y Z

Misc Unsigned Bands - Betray The Living - The Wicked End tab

Help us improve GuitareTab! Take a short survey!
Tabbed by:R.Darkness
R.Darkness@optonline.net

ho=hammer on         /=slide to string
p=pull off           t=fingertapping
h*=harmonic
b^=bend string up
b=bend string down
*=let string ring
ps=pick slide
~=interlude

   intro solo-with wah(freaking hard)
1--12/11ho-------------|
2-------12ho19p14b^-13-|
3----------------------|
4----------------------|
5----------------------|
6----------------------|

1-----------------------|
2-----------13ho12p-----|
3------13ho12p---13ho12-|p
4-13ho12p---------------|
5-----------------------|
6-----------------------|

    verse(both guitars)
1---------------------|
2---------------------|
3---------------------|
4-3-3-3-3-3-3-3-3-3-3-|
5-3-3-3-3-3-3-3-3-3-3-|
6-3-3-3-3-3-3-3-3-3-3-|

1---------------------|
2---------------------|
3---------------------|
4-5-5-5-5-5-5-5-5-5-5-|
5-5-5-5-5-5-5-5-5-5-5-|
6-5-5-5-5-5-5-5-5-5-5-|

 pre-chorus(rythem)
1-----------------|
2-----------------|
3-----------------|
4-7-7-7-5-5-7-7-7-| repeat 5x
5-7-7-7-5-5-7-7-7-|
6-5-5-5-3-4-5-5-5-|

 pre-chorus riffB(lead)
1-------------|
2-------------|
3-------------|
4-------------|
5-9-7-5ho8p-9-|
6-------------|

1-------------|
2-------------|
3-------------|
4-------------|
5-9-7-5ho8p-9-|
6-------------|

  chorus
1--------------17h*-|
2-------15ho12p-----|
3-------------------|
4-5-5-5-------------|
5-5-5-5-------------|
6-5-5-5-------------|

1--------------17h*-|
2-------15ho12p-----|
3-------------------|
4-5-5-5-------------|
5-5-5-5-------------|
6-5-5-5-------------|

 chorus background(lead guitar)
1-------------------------|
2-----------------14b-----|
3------------14-12--13ho--|
4-----------12--------10p-|
5-------14-12-------------|
6-17ho13p-----------------|

 breakdown

1------13---------13-13---------|
2------12---------12-12---------|
3------12---------12-12---------|
4---------------------- repeat--| 3x
5-------------------------------|
6-0-0-0---0-0-0-0---------------|

 riffC
1----------------------|
2----------------------|
3----------------------|
4-9-7-5-3-1--9-7-5-3-1-|
5-9-7-5-3-1--9-7-5-3-1-|
6-9-7-5-3-1--9-7-5-3-1-|

 solo
1-----------------|
2-----------------|
3-13/17b^/12ho/8p-
4-----------------|
5-----------------|
6-----------------|

1-----------------|
2-----------------|
3------18b^-18b---|
4-17h*------------|
5-----------------|
6-----------------|

 (second guitar comes in solo)
1---------------------|
2---------------------|
3----14---------------|
4---12-12-------------|
5--13---11ho-13b^13b^-|
6-15------------------|

 (lead guitar takes over again)
1-12t12t12t12t12t12t12t
2----------------------|
3----------------------|
4----------------------|
5----------------------|
6----------------------|

1-12t12t12t12t12t12t12t
2----------------------|
3----------------------|
4----------------------|
5----------------------|
6----------------------|

1-12t12t12t12t12t12t12t
2----------------------|
3----------------------|
4----------------------|
5----------------------|
6----------------------|

1-------------|
2-------------|
3--------16b^-|
4-13ho12p-----|
5-------------|
6-------------|

1-12-13-11-9-10-13-11-12-|
2------------------------|
3------------------------|
4------------------------|
5------------------------|
6------------------------|

1--13*
2-----|
3-----|
4-----|
5-----|
6-----|


 END
Related for Betray The Living - The Wicked End tab