Song name
# A B C D E F G H I J K L M N O P Q R S T U V W X Y Z

Misc Unsigned Bands - Route 101 - My Apologies tab

this song is so simple its unbelievable. the same thing is played the whole way through 
verses, chorus, intros, and outros.by neil vincent(route 101 lead singer and guitarist).

tuning standard
the whole song is on distortion

intro
|------------------------------------------|
|------------------------------------------|
|------------------------------------------|
|------------------------------------------|
|--9-9-9-9-5-5-5-5-12-12-12-12-7-7-7-7-----|
|--7-7-7-7-3-3-3-3-10-10-10-10-5-5-5-5-----|

verse
|------------------------------------------|
|------------------------------------------|
|------------------------------------------|
|------------------------------------------|
|-11-11-11-11-7-7-7-7-14-14-14-14-9-9-9-9--|
|--9--9--9--9-5-5-5-5-12-12-12-12-7-7-7-7--|

chorus
|--------------------------------------------------|
|--------------------------------------------------|
|--------------------------------------------------|
|--------------2-2-2-2-2-2-3-3-3-3-3-3-------------|
|--------------------------------------3-3-3-3-----|
|--3-3-3-3-3-3-------------------------------------|

then the verse again
then the chorus again

outing verse
|----------------------------------2-2-2-2-0-0-0-0-----------------------|
|--2-2-2-2-2-2-2-2-2-2-2-2-3-3-3-3-3-3-3-3-3-3-3-3-3-3-3-3-3-3-3-3-------|
|--2-2-2-2-2-2-2-2-0-0-0-0-0-0-0-0-2-2-2-2-2-2-2-2-2-2-2-2-2-2-2-2-------|
|--2-2-2-2-0-0-0-0-0-0-0-0-0-0-0-0-----------------3-3-3-3-2-2-2-2-------|
|------------------------------------------------------------------------|
|------------------------------------------------------------------------|

then the chorus again twice and then thats it!
good luck!!!!!

www.freewebs.com/route1zero1
Tap to rate this tab
# A B C D E F G H I J K L M N O P Q R S T U V W X Y Z