Song name
# A B C D E F G H I J K L M N O P Q R S T U V W X Y Z

Misc Unsigned Bands - Route 101 - Four Guys And A Bass Guitar tab

From: www.freewebs.com/route1zero1
Subject: TAB: Route 101! from my apologies!
tabber: mike chaudhary (route 101 drummer)

< means half palm mute and other half distorted

four guys and a bass guitar
from my apologies

capo on nuts 1,2,and 3
play song on fret 7
distorted guitar

verses

|-----<3-----<3----------------------|
|-----<3-----<3----------------------|
|------------<2----------------------|
|-------------------<9-----<5--------|
|-----<2------------<7-----<3--------|
|-----<3-----------------------------|

**********************************************
A gunshot rings...

chorus

|----------------------------------------------|
|----------------------------------------------|
|----------------------------------------------|
|----------7-7-7-7-9-9-9-9-7-7-5-5-5-5---------|
|--5-5-5-5-5-5-5-5-7-7-7-7-5-5-3-3-3-3---------|
|--3-3-3-3-------------------------------------|

Solo

|-----------------3-3-0---0-------------------|
|-----0-3-----0-3-------3---3-0---0-3---------|
|---------2-0-------------------0-------------|   
|---------------------------------------------|
|---------------------------------------------|
|---------------------------------------------|

www.freewebs.com/route1zero1
Tap to rate this tab
 
# A B C D E F G H I J K L M N O P Q R S T U V W X Y Z