Song name
# A B C D E F G H I J K L M N O P Q R S T U V W X Y Z

Misc Unsigned Bands - Route 101 - Blood Shed Of 1000 Lives tab

Song: Blood Shed
Album: my apologies
Tabber: jon davey (route 101 keyboardist)

distorted guitar

Intro 1

E|--------------------------5-0-3-0----------------------|
B|-------------------------------------------------------|
G|-------------------------------------------------------|   x 4
D|-----9-9-9--7-7-7--5-5-5-------------------------------|
A|-----7-7-7--5-5-5--3-3-3-------------------------------|
E|-------------------------------------------------------|

verses

E|-----------------------------|
B|-----------------------------|
G|-----------------------------|   x 8
D|-----------------------------|
A|-----5-5-5--7-7-7--9--5------|
E|-----3-3-3--5-5-5--7--3------|

chorus

E|----------------------------------------------------------------------|
B|----------------------------------------------------------------------|
G|-----9-9-9-9--5-5-5-5--7-7-7-7--2-2-2-2-------------------------------|
D|-----9-9-9-9--5-5-5-5--7-7-7-7--2-2-2-2--8-8-8-8--6-6-6-6--3-3-3-3----|
A|-----7-7-7-7--3-3-3-3--5-5-5-5--0-0-0-0--8-8-8-8--6-6-6-6--3-3-3-3----|
E|-----------------------------------------6-6-6-6--4-4-4-4--1-1-1-1----|

guitar solo

E|-----------------3-3-0---0----------------7-----7---7---|
B|-----0-3-----0-3-------3---3-0---0-3--8-8---8-8---8-----|
G|---------2-0-------------------0------------------------|
D|--------------------------------------------------------|
A|--------------------------------------------------------|
E|--------------------------------------------------------|

E|---------7-----7---7-----8-----8---8--------------------|
B|-----7-7---7-7---7---8-8---8-8---8---8-8-8-8-7-7-7-7----|
G|--------------------------------------------------------|
D|--------------------------------------------------------|
A|--------------------------------------------------------|
E|--------------------------------------------------------|

E|---------7-----7---7-----7-----7---7-----8-----8---8----|
B|-----8-8---8-8---8---7-7---7-7---7---8-8---8-8---8------|
G|--------------------------------------------------------|
D|--------------------------------------------------------|
A|--------------------------------------------------------|
E|--------------------------------------------------------|

E|-------------------------------------8-8-8-8-8-8-8-8-7-7-7-7-7-7-7-7----|
B|-----8-8-8-8-8-8-8-8-7-7-7-7-7-7-7-7------------------------------------|
D|------------------------------------------------------------------------| 
G|------------------------------------------------------------------------|
A|------------------------------------------------------------------------|
E|------------------------------------------------------------------------|

pretty long solo huh!

thanx for reading this tab and good luck trying to play it!

also visit route 101's official website at 

www.freewebs.com/route1zero1
Tap to rate this tab
# A B C D E F G H I J K L M N O P Q R S T U V W X Y Z