Song name
# A B C D E F G H I J K L M N O P Q R S T U V W X Y Z

Misc Unsigned Bands - Route 101 - Im A Hero tab

Help us improve GuitareTab! Take a short survey!
from: cellar in the mist
by: route 101

'im a hero'
route 101

Tabbed by: adam simmonds (route 101 bass guiitarist)
Email: www.freewebs.com/route1zero1

Tuning: standard

chorus
e|------------------------------------------------------|
B|------------------------------------------------------|
G|------------------------------------------------------| x 2
D|--9-9-9-9-9-5-5-5-5-5-7-7-7-7-7-----------------------|
A|--7-7-7-7-7-3-3-3-3-3-5-5-5-5-5-7-7-7-7-7-------------|
E|--------------------------------5-5-5-5-5-------------|

verse
e|------------------------------------------------|
B|------------------------------------------------|
G|------------------------------------------------| x 2
D|------------------------------------------------|
A|--9-9-5-5-7-7-5-5-9-9-5-5-7-7-5-5---------------|
E|--7-7-3-3-5-5-5-5-7-7-3-3-5-5-5-5---------------|


the song goes chorus, verse, chorus, verse, and then the chorus twice.


www.freewebs.com/route1zero1
Related for Route 101 - Im A Hero tab