Song name
# A B C D E F G H I J K L M N O P Q R S T U V W X Y Z

Misc Unsigned Bands - Alloy - Stop The Bus I Want To Get Off tab

hello, this is a small tab of the best song by alloy.
enjoy!

Normal tuning

INTRO/VERSE:

-----------------------------------------------|e
-----------------------------------------------|B
-----------------------------------------------|G
--------9-9-9-9-8-8-8-8-7-7-7-7----------------|D  x like a thousand times
7-7-7-7----------------------------------------|A
-----------------------------------------------|E

then
-------------------|
-------------------|
-9-9-9-9-9-9-------|
-9-9-9-9-9-9-------|
-9-9-9-9-9-9-------|
-------------------|

and into the kind of chorus which goes


----------------------------------------------|
----------------------------------------------|
---------7-9-7-9Bu11-9-9----------------------|
-----7-7--------------------------------------|
-7-7------------------------------------------|
----------------------------------------------|


and sometimes goes into poncy twiddly bits i'm too lazy to tab

bye
Tap to rate this tab
# A B C D E F G H I J K L M N O P Q R S T U V W X Y Z