Song name
# A B C D E F G H I J K L M N O P Q R S T U V W X Y Z

Misc Unsigned Bands - Route 101 - Disease tab

"Disease" by Route 101 guitar tab
Tab for "disease" by route 101 (Off of "my apologies")
By neil vincent (route 101 lead singer and guitarist)

Tuning: Standard EADGBE

  Key
  --------------------------------
   ~ : Ride the note
   / : Slide between the two notes

< - distorted guitar

intro

|--8--8--0--0--0---|
|--8--8--0--0--0---|
|--0--7--9-11--7---|
|--0--0--7--9--5---|
|--7-----0--0--0---|
|--8---------------|

verse 1

|  |----------------------|
|  |----------------------|
|  |----------------------|   x 16
|  |-----9----------------|
|  |-----7-9-7-11/9-------|
|  |-------7-5--9/7-------|

chorus

|  |------------------------------------------------------------------|
|  |------------------------------------------------------------------|
|  |------------------------------------------------------------------|
|  |-----9-9-9-9-9-----------9-9-9-9-9-----------9-9-9-9-9------------|
|  |-----7-7-7-7-7-9-9-9-9-9-7-7-7-7-7-9-9-9-9-9-7-7-7-7-7-7-7-7-7-7--|
|  |---------------7-7-7-7-7-----------7-7-7-7-7-----------5-5-5-5-5--|

|  |-------------------------------------|
|  |-------------------------------------|
|  |-------------------------------------|
|  |-------------------------------------|
|  |-----11-11-11-11/9-9-9-9-------------|
|  |------9--9--9--9/7-7-7-7-------------|

verse 2 (the same as verse 1)

then the chorus
then the intro (x4)
then the chorus (x2)
then the intro(x4)
then the chorus twice 

thats it good luck and enjoy

Tap to rate this tab
 
# A B C D E F G H I J K L M N O P Q R S T U V W X Y Z