Song name
# A B C D E F G H I J K L M N O P Q R S T U V W X Y Z

Misc Unsigned Bands - Patient Zero - Half Dead Of Half Alive tab

         PATIENT ZERO        HALF DEAD OR HALF ALIVE

INTRO/MAIN RIFF

GUITAR 1

E---------------------------------------------------------------------------|
B---------------------------------------------------------------------------|
G---------------------------------------------------------------------------|
D---------------------------0-1-3-3-3-3-------------------------------------|
A----------------------0-1-3------------------------------------------------|
D-0-0-0-0-0-0-0-0-0-1-3-----------------------------------------------------|

GUITAR 2

E---------------------------------------------------------------------------|
B---------------------------------------------------------------------------|
G---------------------------------------------------------------------------|
D---------------------------0-5-7-7-7-7-------------------------------------|
A----------------------0-5-7------------------------------------------------|
D-0-0-0-0-0-0-0-0-0-5-7-----------------------------------------------------|

GUITAR 3

E---------------------------------------------------------------------------|
B---------------------------------------------------------------------------|
G---------------------------------------------------------------------------|
D---------------------------------------------------------------------------|
A---------------------------------------------------------------------------|
D-0-0-0-0-0-0-0-0-0-3-0-3-0-3-0-3-0-3-0-------------------------------------|

VERSE

GUITAR 1

E---------------------------------------------------------------------------|
B---------------------------------------------------------------------------|
G---------------------------------------------------------------------------|
D-----------3---------------------------------------------------------------|
A-1-1-4-1-1-------1-1-4-1-1-3-------1-1-4-1-4-1-4-1-3-1-3-1-3-1-2-1-2-1-2-0-|
D-------------------------------------------------------------------------0-|

GUITAR 2 AND GUITAR 3

E---------------------------------------------------------------------------|
B---------------------------------------------------------------------------|
G---------------------------------------------------------------------------|
D-5-----6-----7-----9-0-1-3-5-----6-----7-----9-0-1-3-----------------------|
A-3-----4-----5-----7-0-1-3-3-----4-----5-----7-0-1-3---------------------0-|
D----0-----0-----0----0-1-3----0-----0-----0----0-1-3-0-0-0-0-0-0-0-0-0-0-0-|

CHORUS

GUITAR 1,2 AND 3

E----------------------------------------------------------------------------|
B----------------------------------------------------------------------------|
G----------------------------------------------------------------------------|
D-3------5------7---------------3------5------7------------------------------|
A-x------x------x-0---0---0---0-x------x------x------0---------0-----------0-|
D-1------3------5-0-0-0-0-0-0-0-1------3------5-0-12-0-12-0-12-0-7-5-4-3-1-0-|

SOLO

GUITAR 1

E---------------------------------------------------------------------------|
B---------------------------------------------------------------------------|
G---------------------------------------------------------------------8h9p8-|
D-----------0-1-3----------0-2-4----------0-3-5----------0-4-6-7h8p7-7------|
A------0-1-3----------0-2-4----------0-3-5----------0-4-6-----------5-------|
D-0-1-3----------0-2-4----------0-3-5----------0-4-6----------------5-------|

E---------------------------------------15p14h15p13---15b-(17)----17b-(19)--|
B-----------12-14h15---------15p14h15p13------------------------------------|
G-10-12-------------8-3-5-7-8-----------------------------------------------|
D------11-12----------------------------------------------------------------|
A---------------------------------------------------------------------------|
D---------------------------------------------------------------------------|

GUITAR 2 AND 3

E----------------------------------------------------------------------------|
B----------------------------------------------------------------------------|
G----------------------------------------------------------------------------|
D----------------------------------------------------------------------------|
A---5---7---8---7p6----------5---7---8---7p6----------5---7---8---7---7-8-9--|b
D-0---0---0---0------------0---0---0---0----------------0---0---0---0--0-0---|

BREAKDOWN ENDING

GUITAR 1,2 AND 3

E---------------------------------------------------------------------------|
B---------------------------------------------------------------------------|
G---------------------------------------------------------------------------|
D----------------------------------------------0-1-3------------------------|
A-0-0-1-0-0-1-0-0-1-0-0-3b----------------0-1-3-----------------------------|
D-0-0-1-0-0-1-0-0-1-0-0--------------0-1-3----------------------------------|
Tap to rate this tab
# A B C D E F G H I J K L M N O P Q R S T U V W X Y Z