Song name
# A B C D E F G H I J K L M N O P Q R S T U V W X Y Z

Misc Unsigned Bands - Address Unknown - Cure For The Common Cold tab

first off this is my band and as i always say thier is no greater thrill than being in a band.
----------------------------------------------|
----------------------------------------------|
----------------------------------------------|
--9-9-9-7-7-7-5-5-5-7-7-7-9-9-9-5-7-7-7-7-0-9-|
--9-9-9-7-7-7-5-5-5-7-7-7-9-9-9-5-7-7-7-7-0-9-|
--9-9-9-7-7-7-5-5-5-7-7-7-9-9-9-5-7-7-7-7-0-9-|

then i just make up any solo to go with it as long as its fast:
e----7-----------7----|     then try playing the minor and major pentatonic
a---7-b10---9---7-b10-|     scale over it and make up some leads!
g-b9--------9-b9------|
d---------0-9---------|
a---------0-----------|
D---------0-----------|
for more info on my band ask me. i got all the tabs and lyrics
Tap to rate this tab
 
# A B C D E F G H I J K L M N O P Q R S T U V W X Y Z