Song name
# A B C D E F G H I J K L M N O P Q R S T U V W X Y Z

Misc Unsigned Bands - Drown In Sorrow - The Dangers Of Being Alone tab

Help us improve GuitareTab! Take a short survey!
tabbed by:immorta51654

h=hammer on
p=pull off
/=slide up
=slide down
b^=bend string up
b=bend string down
h*=harmonic

  intro(acoustic)
1------------------------|
2-12-14-12h10p--14-14--8-|
3----14---------14-14-6--|
4------------------------|
5------------------------|
6------------------------|
   repeat 3x

 riffA(both guitars)
1-----------------------------|
2-----------------------------|
3-----------------------------|
4---0-0-0-0-0-0---0-0-0-0-0-0-|
5-5-0-0-0-0-0-0-5-0-0-0-0-0-0-|
6-5-0-0-0-0-0-0-5-0-0-0-0-0-0-|

1-----------------------------|
2-----------------------------|
3-----------------------------|
4---0-0-0-0-0-0---0-0-0-0-0-0-|
5-5-0-0-0-0-0-0-5-0-0-0-0-0-0-|
6-5-0-0-0-0-0-0-5-0-0-0-0-0-0-|

 chorus(lead)
1-------------------------|
2-------------------------|
3-------16b^-----13p17h---|
4-17h9p----1312h----------|
5-------------------------|
6-------------------------|

1-------------------------|
2-------------------------|
3--------6b^/1315h/12p19h-|
4-17h13p------------------|
5-------------------------|
6-------------------------|

 riffB
1----------------12/14---|
2-12/14------12/14-------|
3-------12/14------------|
4------------------------|
5------------------------|
6------------------------|

 solo
1----------------|
2---16--12----17-|
3-12-14--11-13h--|
4----------------|
5----------------|
6----------------|

1----------------|
2----------------|
3-12b^12b/1411h-
4----------------|
5----------------|
6----------------|

1-14h12p14h12p16b
2----------------|
3----------------|
4----------------|
5----------------|
6----------------|
Related for Drown In Sorrow - The Dangers Of Being Alone tab