Guitaretab - guitar tabs
Song name
# A B C D E F G H I J K L M N O P Q R S T U V W X Y Z

Misc Unsigned Bands - Zygote - Nejuan tab

INTRO: MUTE + WAH
-----------------------|
-----------------------|
--2--------------------|
----4-xx-4-xx-4-xx-44--|
-----------------------|
-----------------------|
[ Tab from: http://www.guitaretab.com/m/misc-unsigned-bands/71464.html ]
VERSE:
--6---6-6------------------------------------------------------------|
--6h7-7-7--xx--------------------------------------------------------|
--6---6-6--xx--4h6-x-11-------11-11-11--11h13p11-11-11--11-----------|
--6h8-8-8--xx--4h6-x-11-------11-11-13--11-------13-13--11h13p11-11--|
--6---6-6--xx--4---x-9--11/13------------------------------------13--|
---------------------------------------------------------------------|

CHORUS/BRIDGE THINGY:
--5-------4-3-------2---------|
--5-xx-xx-4-3-xx-xx-2---------|
--6-xx-xx-5-4-xx-xx-3---------|
--7-xx-xx-6-5-xx-xx-4---------|
--7-xx-xx-6-5-xx-xx-4--2-3-4--|
--5-------4-3-------2---------|


CHORUS/BRIDGE THINGY: LAST WEIRD BRIDGE:
------------------|
------------------|
--9-11-9---7-9-6--|
------------------|
--7-9--7---5-7-4--|
------------------|

OUTRO:
------------------------|
------------------------|
------------------------|
---------------6-7-6----|
-------------4-------7--|
--0-0-2-0-2-------------|
Related for Zygote - Nejuan tab
×
Zygote - Nejuan