Song name
# A B C D E F G H I J K L M N O P Q R S T U V W X Y Z

Misc Unsigned Bands - Zygote - Ladies tab

Author/Artist: Zygote
Title: Ladies
Album: 1.5
Transcribed by: Isaac Apter


-------------------------------------0---|
-------------------------------------0---|
--11-11-11-12--------------16---14---13--|
--0--0--0--0--11-11-11-11------------12--|
--------------0--0--0--0------0------11--|
-----------------------------------0-0---|

-------------------------------------0---|
-------------------------------------0---|
--11-11-11-12------------------------13--|
--0--0--0--0--11-11-11-11-12-11-11---12--|
--------------0--0--0--0--0--0--12---11--|
-------------------------------------0---|

--------6/7-----------------6/7------97----|
-----xx-6/7-xx-----------xx-6/7------------|
-----xx-6/7-xx--7-8-9-9--xx-6/7--7/9-------|
-----xx-6/7-xx-----------xx-6/7------------|
-----xx-----xx--5-6-7-7--xx----------------|
--0----------------------------------------|

Jimi Chord...x2 each time...

Octaves:
---------------------------|
---------------------------|
---------------------------|
---------------------------|
--9/10-10-9----9/10-10-12--|
---------------------------|
Tap to rate this tab
# A B C D E F G H I J K L M N O P Q R S T U V W X Y Z