Song name
# A B C D E F G H I J K L M N O P Q R S T U V W X Y Z

Misc Unsigned Bands - Zygote - I Did It For You tab

Author/Artist: Zygote
Title: I Did It For You
Album: [UNRELEASED]
Transcribed by: Isaac Apter

INTRO:
-x-----------------2-------7-----5----------|
--x----------------x-------8-----5----------|
---x-----5---------2-------9-----5--|--5-4--|
----x----5--x------1--x----9--x--7--|--5-4--|
-----3-3-3--x--2-2-2--x--7-7--x--7-----3-2--|
---------------------------------5----------|

RIFF:
------------------------|
------------------------|
------------------------|
------------------------|
--7-----7-------10---9--|
----0-----0-7-8----7----|

VERSES:
--7--7--7--|
--8--8--8--|
--9--9--9--|
-----------|
-----------|
-----------|

SOLO:
------------------------|
------------------------|
------------------------| X4
------------------------| X4
--7-----7-------10---9--|
----0-----0-7-8----7----|

-------------------|
-------------------|
-------------------| X2
-------------------| X2
--2-2-2-----5---4--|
--------2h3---2----|

--------------------|
--------------------|
--------------------| X2
--------------------| X2
--7-7-7-----10---9--|
--------7h8----7----|

BRIDGE:
------------|
------------|
------------| - Each note 4 times
------------|
------------|
--8-7-0-5---|

OUTRO = INTRO
Tap to rate this tab
 
# A B C D E F G H I J K L M N O P Q R S T U V W X Y Z