Song name
# A B C D E F G H I J K L M N O P Q R S T U V W X Y Z

Misc Unsigned Bands - Zygote - C tab

Author/Artist: Zygote
Title: C
Album: 1.5
Tabbed by: ISAAC APTER

--15-15--xx-xx--15-15--xx-xx--15--15--|
--14-14--xx-xx--14-14--xx-xx--14--14--|
--15-15--xx-xx--15-15--xx-xx--15--15--|
--------------------------------------|
--------------------------------------|
--------------------------------------|

--13-13--xx-xx--13-13--xx-xx--13--13--|
--12-12--xx-xx--12-12--xx-xx--12--12--|
--12-12--xx-xx--12-12--xx-xx--12--12--|
--------------------------------------|
--------------------------------------|
--------------------------------------|

--------14~---------13~---------------------------------------------------------|
--------------------------------------------------------------------------------|
--13/14-------1312--------------------------------------------------------------|
--------------------------------------------------------------------------------|
--------------------------------------------------------------------------------|
--------------------------------------------------------------------------------|
|------X2-----------------------------------------------------------------------|
------------------105-----------------------------------------------------------|
-------------------------------------------10-x--10-10/12-----------------------|
--10-11-xx-10-11-----------10-11-10-10-11-----x---------------10-11-xx--10-11---|
--------xx------------------------------------x---------------------xx----------|
--------xx---------------------------------8--x--8--8/10------------xx----------|
--9--10-xx--9-10-----------9--10-9--9--10---------------------9--10-xx--9-10----|

-------------------------------------------------------------------------------|
-------------------------------------------------------------------------------|
--12b-10---12-12p10----12-----10-----------------------------------------------|
--------------------12-----12------12-10---------------------------------------|
-----------------------------------------12-11-10-8-10--10/1110-8--------------|
-------------------------------------------------------------------10-8-10-----|

---------------------------------|
---------------------------------|
---------------------------------|
-12-----------------10h12-12-12--|
------------8-10/12--------------|
----10-10------------------------|
Tap to rate this tab
 
# A B C D E F G H I J K L M N O P Q R S T U V W X Y Z