Guitaretab - guitar tabs
Song name
# A B C D E F G H I J K L M N O P Q R S T U V W X Y Z

Misc Unsigned Bands - Sharp Side Up - No Sex No Drugs No Rock No Roll tab

-------------------------------------------------------------------------------
Sharp Side Up  No Sex, No Drugs, No Rock, No Roll
-------------------------------------------------------------------------------
Artist: Sharp Side Up
Song: No Sex, No Drugs, No Rock, No Roll
Album: Deep In The City
Year: 2006
Tabbed By: Sean Walkington
e-mail: seanwalkington2003@hotmail.com

www.freewebs.com/sharpsideup

Tuning:

Intro & Verse

e|---------------------------------------------------------------------------|
B|---------------------------------------------------------------------------|
G|-9---7-6-7-6-7/9-9-9---9---7-6-7-6-7/9-9-9---------------------------------|
D|-9---7-6-7-6-7/9-9-9---9---7-6-7-6-7/9-9-9---------------------------------|
A|-7---5-4-5-4-5/7-7-7---7---5-4-5-4-5/7-7-7---------------------------------|
E|---------------------------------------------------------------------------|

Chorus
[ Tab from: http://www.guitaretab.com/m/misc-unsigned-bands/71497.html ]
e|---------------------------------------------------------------------------|
B|---------------------------------------------------------------------------|
G|-4-4---4-2---4-2-----------------------------------------------------------|
D|-4-4---4-2---4-2---2-2-----------------------------------------------------|
A|-2-2---2-0---2-0---2-2-----------------------------------------------------|
E|-------------------0-0-----------------------------------------------------|

Solo

e|-------------------------------------------------10\8----------------------|
B|--------13--12--10------12--10---------------------------------------------|
G|-12-h14-------------12----------12--14-12-0-12-14------12-10-9-------------|
D|---------------------------------------------------------------1210-------|
A|---------------------------------------------------------------------------|
E|---------------------------------------------------------------------------|

e|---------15----------13---------12-----------------------------------------|
B|-13--13------13--13------13-b15----13-12-13----13----13--------------------|
G|--------------------------------------------12----10-----------------------|
D|--------------------------------------------------------12-14--------------|
A|---------------------------------------------------------------------------|
E|---------------------------------------------------------------------------|

Structure 

Intro & Verse x4
Chorus x3
Intro & Verse x4
Chorus x3
Intro & Verse x4
Chorus x3
Solo x1
Intro & Verse x4
Chorus x3
Related for Sharp Side Up - No Sex No Drugs No Rock No Roll tab