Song name
# A B C D E F G H I J K L M N O P Q R S T U V W X Y Z

Misc Unsigned Bands - Where Infinity Ends - Cyanide Kisses tab

Here's the intro to Cyanide Kisses by Where Infinity Ends
To listen to the song go to... http://www.myspace.com/whereinfinityends

e|-------4-----4---|-------4-----4---|-------0-----0---|-------5-----5---|
B|---5-----5-----5-|---5-----5-----5-|---0-----0-----2-|---0-----0-----0-|
G|-6---6-----6-----|-4---4-----4-----|-2---2-----2-----|-2---2-----2-----|
D|-----------------|-----------------|-----------------|-----------------|
A|-----------------|-----------------|-----------------|-----------------|
E|-----------------|-----------------|-----------------|-----------------|

e|-------4-----4---|-------5-----5---|-------0-----0---|-------0-----0---|
B|---5-----5-----5-|---7-----7-----7-|---0-----0-----0-|---0-----0-----0-|
G|-6---6-----6-----|-6---6-----6-----|-2---2-----2-----|-4---4-----4-----|
D|-----------------|-----------------|-----------------|-----------------|
A|-----------------|-----------------|-----------------|-----------------|
E|-----------------|-----------------|-----------------|-----------------|
Tap to rate this tab
 
# A B C D E F G H I J K L M N O P Q R S T U V W X Y Z